Guitar Tabs, Chords and Lyrics
Major upgrade!! After one year development the new version of Chordie is now online! Please give feedback.


Hoochie Coochie Man  Muddy Waters

~Title: Hoochie Coochie Man
Artist: Muddy Waters
[A]  
 
 e-|--------------------------------------|-------------------------------------|
 B-|--------------------------------------|-------------------------------------|
 G-|--------------------------------------|--2----------------------------------|
 D-|-----------------------------0--2-----|--2--------------------------0--2----|
 A-|--------------------------3--------3--|--0-----------------------3--------3-|
 E-|--------------------------------------|-------------------------------------|

|:(repeat)
[A7]  
 
 e-|--------------------------------------|------------------------------------|
 B-|--------------------------------------|------------------------------------|
 G-|--2-----------------------------------|--2---------------------------------|
 D-|--2--------------------------0--2-----|--2--------2--2--4--4--2--2--4--4---|
 A-|--0-----------------------3--------3--|--0--------0--0--0--0--0--0--0--0---|
 E-|--------------------------------------|------------------------------------|

(1,2,3) :| (4) (shuffle)
[D]  
 
 e-|--------------------------------------|-------------------------------------|
 B-|--------------------------------------|-------------------------------------|
 G-|--2-----2--4-----4--2-----2--4-----4--|--2-----2--4-----4--2-----2--4-----4-|
 D-|--0-----0--0-----0--0-----0--0-----0--|--0-----0--0-----0--0-----0--0-----0-|
 A-|--------------------------------------|-------------------------------------|
 E-|--------------------------------------|-------------------------------------|

[A7]  
 
 e-|--------------------------------------|-------------------------------------|
 B-|--------------------------------------|-------------------------------------|
 G-|--------------------------------------|-------------------------------------|
 D-|--2-----2--4-----4--2-----2--4-----4--|--2-----2--4-----4--2-----2--4-----4-|
 A-|--0-----0--0-----0--0-----0--0-----0--|--0-----0--0-----0--0-----0--0-----0-|
 E-|--------------------------------------|-------------------------------------|

[E9] [D7]  
 
 e-|--------------------------------------|-------------------------------------|
 B-|--------------------------------------|-------------------------------------|
 G-|--4-----4--6-----6--4-----4--6-----6--|--2-----2--4-----4--2-----2--4-----4-|
 D-|--2-----2--2-----2--2-----2--2-----2--|--0-----0--0-----0--0-----0--0-----0-|
 A-|--------------------------------------|-------------------------------------|
 E-|--------------------------------------|-------------------------------------|

[A7]  
 
 e-|--------------------------------------|-------------------------------------|
 B-|--------------2--------3--------4-----|--5----------------------------------|
 G-|--2-----------------------------------|-------------------------------------|
 D-|--2--------2-----2--3-----3--4-----4--|--5--------------------------0--2----|
 A-|--0-----------------------------------|--------3--5--6--7--------3--------3-|
 E-|--------------------------------------|--------------------0----------------|

(goto 4)
Hoochie Coochie Man - Muddy Waters
| % | A | A | A |
1. The Gypsy Woman told my mother, Before I was born,
2. I got a black cat bone, I got a mojo too,
3. On the seventh hours, On the seventh day,
1. I gotta boy childs' comin', He's gonna be a son of a gun,
2. I got the John the Conqueroo, I'm gonna mess with you,
3. On the seventh month, The seven doctors say,
1. He gonna make pretty womens, Jump and shout,
2. I'm gonna make you girls, Lead me by my hand,
3. He was born for good luck, And that you'll see,
| A | A |
1. Then the world wanna know, What's it all about. Cuz you know I'm
2. Then the world will know, The Hoochie Coochie Man. But you know I'm
3. I got seven hundred dollars, And don't you mess with me. But you know I'm
| A | A7 |
him, Everybody knows I'm him, Well you know the
| D | D | A7 | A7 |
Hoochie Coochie Man, Every body knows I him.
| E9 | D7 | A7 | A7 E7 :|
* John the Conqueroo and mojo = Louisiana voodoo charms
[---]Yazid Kanane / rock-x5@hotmail.fr

Important: The song above is NOT stored on the Chordie server. The original song is hosted at www.guitaretab.com. Chordie works as a search engine and provides on-the-fly formatting. Chordie does not index songs against artists'/composers' will. To remove this song please click here.

Text color:
Chord color:
Chord grids: 
Font size:    
Page size: 

A A7 D D7 E9
Rate #1 of 6 versions

Login - add to songbook

SHARE PAGE  




You need to log in to post comments