Guitar Tabs, Chords and Lyrics
Server problems seems to be fixed. Chordie has been experiencing problems with songs disappearing. These issues now seems to be fixed, but still verifying the fix. If you find anything strange, please email admin@chordie.com.


Abusement Park   Municipal Waste

 
 |-------------------------------|
 |-------------------------------|
 |-------------------------------|
 |-----5\4-----------------------|
 |-----3\2---5\4-----2----(2)----|
 |-0-0-----0-3\2-2-3-0----(0)----|

 


 


 Guitar 1


 [PM] PM [PM]ph


 

 
 [-------------------------------|
 [-------------------------------|
 [-------------------------------|
 [-----5\4-----------5-----------|
 [-----3\2---5\4-----------------|
 [-0-0-----0-3\2-2-3-------------|

 


 [Guitar 2


 [PM] PM [PM]


 

 
 [-------------------------------|
 [-------------------------------|
 [-------------------------------|
 [-----5\4-----------5----(5)----|
 [-----3\2---5\4-----3----(3)----|
 [-0-0-----0-3\2-2-3-3----(3)----|

 


 


 [PM] PM [PM] [---PM--]


 

 
 |------------------------------|
 |------------------------------|
 |------------------------------|
 |-----5\4----------------------|
 |-----3\2---5\4-----2----------|
 |-0-0-----0-3\2-2-3-0--0-0-0-0-|

 


 


 Guitar 1


 [PM] PM [PM] [PM]


 

 
 [-------------------------------------------------|
 [-------------------------------------------------|
 [-------------------------------------------------|
 [-----5\4-----------5-----5--4-5-7-5-4-5-4--------|
 [-----3\2---5\4-----3-3-3------------------5-4----|
 [-0-0-----0-3\2-2-3----------------------------5--|

 


 [Guitar 2


 [PM] PM [PM] [PM]


 

 
 [-------------------------------------------------|
 [-------------------------------------------------|
 [-------------------------------------------------|
 [-----5\4-----------5-----5--4-5-7-5-4-5-4--------|
 [-----3\2---5\4-----3-3-3------------------5-4-5--|
 [-0-0-----0-3\2-2-3-------------------------------|

 


 


 Main Riff


 


 Guitar 1


 

 
 [--PM--] [PM] PM [--PM--] [PM] PM ~~~~~~
 [--------------------------------------------------------------|
 [-----------------------------------------------------------|
 [--------------------------------------------------------------|
 [---------5\4-----------3-2---3-2---------5\4------------------|
 [---------3\2-----5\4-------5-------------3\2-----5-4----------|
 [-0-0-0-0-----0-0-3\2-0-----------0-0-0-0-----0-0-----0--------|

 


 [Guitar 2 ~~~~~~


 

 
 [--------------------------------------------------------------|
 [-----------------------------------------------------------|
 [--------------------------------------------------------------|
 [-2---------------------3-2---3-2------------------------------|
 [-2-------------------------5----------------------------------|
 [-0------------------------------------------------------------|
 [--PM--] [PM] PM [--PM--] [PM] PM
 |---------------------------------------------------------------|
 |---------------------------------------------------------------|
 |---------------------------------------------------------|
 |---------5\4-----------3-2---3-2---------5\4----------------|
 |---------3\2-----5\4-------5-------------3\2-----5\4-----------|
 |-0-0-0-0-----0-0-3\2-0-----------0-0-0-0-----0-0-3\2-0---------|
 [--PM--] [PM] [PM] [PM] [PM] [PM] [PM] [-PM--]
 |-----------------------------------------------------------------|
 |-----------------------------------------------------------------|
 |-----------------------------------------------------------------|
 |---------3-2-----2-------2-----2-----3-2-------2-----------------|
 |-----------------------5---------------------5-------3-5-3-2-3-5-|
 |-0-0-0-0-----0-0---0-0-----0-0---0-0-----0-0-----0-0-------------|

 


 


 [PM] [PM] [PM] 


 

 
 |-------------------------------|
 |-------------------------------|
 |-------------------------------|
 |-9-----------------------------|
 |-7-----8-7-----7-5-----5-7-5-7-|
 |---0-0-----0-0-----0-0---------|

 


 


 [PM] [--PM--] 


 

 
 |-------------------------|
 |-------------------------|
 |----------------------9\-|
 |-9-----5/7\5\4---4/7--9\-|
 |-7-----3/5\3\2---2/5--7\-|
 |---0-0---------3---------|

 


 


 Guitar 1


 

 
 [--PM-] [--PM-]
 [-------------------------------|
 [-------------------------------|
 [-------------------------------|
 [-------3/4---------3-2---2-3p2-|
 [-------1/2-------------5-------|
 [-0-0-0-----0-0-0-0-------------|

 


 [Guitar 2


 

 
 [-------------------------------|
 [-------------------------------|
 [-------------------------------|
 [-------------------3-2---2-3p2-|
 [-----------------------5-------|
 [-------------------------------|

 


 


 [---PM--] PM PM PM


 

 
 |---------------------------------|
 |---------------------------------|
 |---------------------------------|
 |---------5\4---------------------|
 |---------3\2---5---4---5\4---5---|
 |-0-0-0-0-----0-3-x-2-0-3\2-0-3-0-|

 


 


 [---PM--] PM PM


 

 
 |-----------------------------------|
 |-----------------------------------|
 |-----------------------------------|
 |---------5\4-----------3-2---2-3p2-|
 |---------3\2---5---4-------5-------|
 |-0-0-0-0-----0-3-x-2-0-------------|

 


 


 [---PM--] PM PM [PM]


 

 
 |-----------------------------------|
 |-----------------------------------|
 |-----------------------------------|
 |---------5\4-----------------------|
 |---------3\2---5---4---5\4-4\1-2-2-|
 |-0-0-0-0-----0-3-x-2-0-3\2-2\1-0-0-|

 


 


 Guitar 1


 

 
 [----PM----] ph~~~[----PM----] PM
 [---------------------------------------------------|
 [---------------------------------------------------|
 [---------------------------------------------------|
 [------------3-2---2-3----------------5\4-----------|
 [----------------5--------------------3\2---5\4-----|
 [-00-000-0-0--------------0-0-0-0-0-0-----0-3\2-2-3-|

 


 [Guitar 2


 

 
 [ [--PM--]ph~~~[----PM----] PM
 [---------------------------------------------------|
 [---------------------------------------------------|
 [---------------------------------------------------|
 [------------7-5-4-5-5----9-9-9-9-9-9-5\4-----------|
 [--------2-2--------------7-7-7-7-7-7-3\2---5\4-4-5-|
 [--------0-0------------------------------0-3\2-----|
 [----------PM-----------] [PM]
 |-----------------------------------------------------------|
 |-----------------------------------------------------------|
 |-----------------------------------------------------------|
 |-------------------------3-2---3-5-----5-4-5/7-5-4-5-------|
 |-----------------------------5---3-3-3---------------5-4-5-|
 |-0-0-0-0-0-0-0-0-0-0-0-0-----------------------------------|
 [---------PM-----------] [-------PM------] [PM]
 |-----------------------------------------------------------------|
 |-----------------------------------------------------------------|
 |-----------------------------------------------------------------|
 |-------------------------3-2---3-2-----------------5\4-----------|
 |-----------------------------5---------------------3\2---5\4-----|
 |-0-0-0-0-0-0-0-0-0-0-0-0-----------0-0-0-0-0-0-0-0-----0-3\2-2-3-|

 


 


 Guitar 2


 

 
 [----------PM-----------]
 [-----------------------------------------------------------|
 [-----------------------------------------------------------|
 [-----------------------------------------------------------|
 [-------------------------3-2---3-2-------------------------|
 [-----------------------------5-----------------------------|
 [-0-0-0-0-0-0-0-0-0-0-0-0-----------------------------------|

 


 [Guitar 2


 

 
 [[----------PM-----------] [PM]
 [-----------------------------------------------------------|
 [-----------------------------------------------------------|
 [-----------------------------------------------------------|
 [-------------------------3-2---3-5-----5-4-5/7-5-4-5-------|
 [-----------------------------5---3-3-3---------------5-4-5-|
 [-0-0-0-0-0-0-0-0-0-0-0-0-----------------------------------|

 


 


 Guitar 1


 

 
 [-----------------------------|
 [-----------------------------|
 [-----------------------------|
 [--------5-7-5\4-5-4----------|
 [-2--(2)-------------5-4-5-2--|
 [-0--(0)-------------------0--|

 


 [Guitar 2


 

 
 [-----------------------------|
 [-----------------------------|
 [-----------------------------|
 [-9--(0)-5-7-5\4-5-4----------|
 [-7--(7)-------------5-4-5-2--|
 [--------------------------0--|


Important: The song above is NOT stored on the Chordie server. The original song is hosted at www.guitaretab.com. Chordie works as a search engine and provides on-the-fly formatting. Chordie does not index songs against artists'/composers' will. To remove this song please click here.

This song is displayed as text-only. Transposing and tuning is only available for chordpro-songs.
Rate #1 of 3 versions

Jango Player

Login - add to songbook

SHARE PAGE  



You need to log in to post comments