Guitar Tabs, Chords and Lyrics
Server problems seems to be fixed. Chordie has been experiencing problems with songs disappearing. These issues now seems to be fixed, but still verifying the fix. If you find anything strange, please email admin@chordie.com.


Unnatural Selection  Muse

from The Resistance (2009)
Tabbed by Mr Bryce
Yo - this is my first tab, so apologies if the layout isn't too economic.
The tab itself is accurate, and easier under the finger (in my opinion) than the drop D version.
If you're unsure of timings, listen to the song (recommended for the 3/4 section).
**Guitar Pro 5 version of this tab is available if people want it.**
-Mr B-
 
 -----------------------------------------------------------------------------

TUNING: D G D G B E
Intro (after Organs)
S S S S S S S S S S S S S S S S S S S S S S S S S S S S S S S S
 
 E||----------------------------------|----------------------------------|
 B||----------------------------------|----------------------------------|
 G||----------------------------------|----------------------------------|
 D||----------------------------------|----------------------------3---3-|
 G||--0-0-0-0-0-0-0-0-0-0-0-0-0-0-0-0-|--0-0-0-0-0-0-0-0-0-0-0-0-0---0---|
 D||----------------------------------|----------------------------------|

S S S S S S S S S S S S S S S S S S S S S S S S S S S S S S S S
 
 ----------------------------------|----------------------------------|
 ----------------------------------|----------------------------------|
 ----------------------------------|----------------------------------|
 ----------------------------1---1-|------------------------3-4-----4-|
 --0-0-0-0-0-0-0-0-0-0-0-0-0---0---|--0-0-0-0-0-0-0-0-----------------|
 ----------------------------------|------------------3-0-3-----4-4---|

Verse - REPEAT 6 TIMES
S S S S S S S S S S S S S S S S S S S S S S S S S S S S S S S S
 
 |-----------------------------------|------------------------------------||
 |-----------------------------------|------------------------------------||
 |*----------------------------------|-----------------------------------*||
 |*--5-------------------------------|-------------------------3-4-----4-*||
 |-----0-0-0-0-0-0-0-3-0-3-4-5-3-5-6-|--6S-7------------------------------||
 |-----------------------------------|-------0-0-0-0-0-0-3-0-3-----4-4----||

Pre-Chorus
S S S S S S S S S S S S S S S S S S S S S S S S S S S S S S S S
 
 ----------------------------------|----------------------------------|
 --------------------------3-3-6-6-|--4-4-4-4-4-4-4-4-4-4-4-4-4-4-4-4-|
 --3-3-3-3-2-2-2-2-3-3-5-5---------|----------------------------------|
 ----------------------------------|----------------------------------|
 ----------------------------------|----------------------------------|
 ----------------------------------|----------------------------------|

S S S S S S S S S S S S S S S S S S S S S S S S S S S S S S S S
 
 ----------------------------------||------------------------------------||
 --3-3-3-3---------3-3-------------||------------------------------------||
 ----------5-5-5-5-----5-5-3-3-2-2-||*--3-3-3-3-3-3-3-3-2-2-2-2-2-2-2-2-*||
 ----------------------------------||*----------------------------------*||
 ----------------------------------||------------------------------------||
 ----------------------------------||------------------------------------||

Chorus
E S S S S S S S S S S S S S S E S S S S S S S S S S S S S S
 
 ---------------------------------|---------------------------------|
 ---------------------------------|---------------------------------|
 ---------------------------------|--5--5-5-5-5-5-5-3-3-3-3-3-3-3-3-|
 ---------------------------------|--5--5-5-5-5-5-5-5-5-5-5-5-5-5-5-|
 --7--7-7-7-7-7-7-7-7-7-7-7-7-7-7-|---------------------------------|
 --5--5-5-5-5-5-5-5-5-5-5-5-5-5-5-|---------------------------------|

E S S S S S S S S S S S S S S E S S S S S S S S S S S S S S
 
 ---------------------------------|---------------------------------|
 ---------------------------------|---------------------------------|
 ---------------------------------|--3--3-3-3-3-3-3-2-2-2-2-2-2-2-2-|
 ---------------------------------|--3--3-3-3-3-3-3-3-3-3-3-3-3-3-3-|
 --5--5-5-5-5-5-5-5-5-5-5-5-5-5-5-|---------------------------------|
 --3--3-3-3-3-3-3-3-3-3-3-3-3-3-3-|---------------------------------|

S S S S S S S S S S S S S S S S S S S S S S S S S S S S S S S S
 
 ----------------------------------|----------------------------------|
 ----------------------------------|----------------------------------|
 ----------------------------------|----------------------------------|
 ----------------------------------|----------------------------------|
 --3-3-3-3-3-3-3-3-4-4-4-4-4-4-4-4-|--5-5-5-5-5-5-5-5-6-6-6-6-6-6-6-6-|
 --1-1-1-1-1-1-1-1-2-2-2-2-2-2-2-2-|--3-3-3-3-3-3-3-3-4-4-4-4-4-4-4-4-|

S S S S S S S S S S S S S S S S W
 
 ----------------------------------|--------------------|
 ----------------------------------|--------------------|
 ----------------------------------|--3/----------------|
 ----------------------------------|--3/----------------|
 --7-7-7-7-7-7-7-7-3-3-3-3-5-5-5-5-|--3/----------------|
 --5-5-5-5-5-5-5-5-1-1-1-1-3-3-3-3-|--------------------|

Verse - REPEAT 6 TIMES
S S S S S S S S S S S S S S S S S S S S S S S S S S S S S S S S
 
 |-----------------------------------|------------------------------------||
 |-----------------------------------|------------------------------------||
 |*----------------------------------|-----------------------------------*||
 |*----------------------------------|-------------------------3-4-----4-*||
 |---0-0-0-0-0-0-0-0-3-0-3-4-5-3-5-6-|--6S-7------------------------------||
 |-----------------------------------|-------0-0-0-0-0-0-3-0-3-----4-4----||

Pre-Chorus
S S S S S S S S S S S S S S S S S S S S S S S S S S S S S S S S
 
 ----------------------------------|----------------------------------|
 --------------------------3-3-6-6-|--4-4-4-4-4-4-4-4-4-4-4-4-4-4-4-4-|
 --3-3-3-3-2-2-2-2-3-3-5-5---------|----------------------------------|
 ----------------------------------|----------------------------------|
 ----------------------------------|----------------------------------|
 ----------------------------------|----------------------------------|

S S S S S S S S S S S S S S S S S S S S S S S S S S S S S S S S
 
 ----------------------------------||------------------------------------||
 --3-3-3-3---------3-3-------------||------------------------------------||
 ----------5-5-5-5-----5-5-3-3-2-2-||*--3-3-3-3-3-3-3-3-2-2-2-2-2-2-2-2-*||
 ----------------------------------||*----------------------------------*||
 ----------------------------------||------------------------------------||
 ----------------------------------||------------------------------------||

Chorus
E S S S S S S S S S S S S S S E S S S S S S S S S S S S S S
 
 ---------------------------------|---------------------------------|
 ---------------------------------|---------------------------------|
 ---------------------------------|--5--5-5-5-5-5-5-3-3-3-3-3-3-3-3-|
 ---------------------------------|--5--5-5-5-5-5-5-5-5-5-5-5-5-5-5-|
 --7--7-7-7-7-7-7-7-7-7-7-7-7-7-7-|---------------------------------|
 --5--5-5-5-5-5-5-5-5-5-5-5-5-5-5-|---------------------------------|

E S S S S S S S S S S S S S S E S S S S S S S S S S S S S S
 
 ---------------------------------|---------------------------------|
 ---------------------------------|---------------------------------|
 ---------------------------------|--3--3-3-3-3-3-3-2-2-2-2-2-2-2-2-|
 ---------------------------------|--3--3-3-3-3-3-3-3-3-3-3-3-3-3-3-|
 --5--5-5-5-5-5-5-5-5-5-5-5-5-5-5-|---------------------------------|
 --3--3-3-3-3-3-3-3-3-3-3-3-3-3-3-|---------------------------------|

S S S S S S S S S S S S S S S S S S S S S S S S S S S S S S S S
 
 ----------------------------------|----------------------------------|
 ----------------------------------|----------------------------------|
 ----------------------------------|----------------------------------|
 ----------------------------------|----------------------------------|
 --3-3-3-3-3-3-3-3-4-4-4-4-4-4-4-4-|--5-5-5-5-5-5-5-5-6-6-6-6-6-6-6-6-|
 --1-1-1-1-1-1-1-1-2-2-2-2-2-2-2-2-|--3-3-3-3-3-3-3-3-4-4-4-4-4-4-4-4-|

S S S S S S S S S S S S S S S S W .
 
 ----------------------------------|--------------------|
 ----------------------------------|--------------------|
 ----------------------------------|--3/----------------|
 ----------------------------------|--3/----------------|
 --7-7-7-7-7-7-7-7-3-3-3-3-5-5-5-5-|--3/----------------|
 --5-5-5-5-5-5-5-5-1-1-1-1-3-3-3-3-|--------------------|

Solo - TIME SIGNATURE SWITCHES TO 3/4 (3 beats per bar - it has a waltzy feel)
H. H. H. H. H.
 
 ---------------|---------------|---------------|---------------|---------------|
 ---------------|---------------|---------------|---------------|---------------|
 ---------------|---------------|---------------|---------------|---------------|
 ---------------|---------------|---------------|---------------|---------------|
 ---------------|---------------|---------------|---------------|---------------|
 --5------------|--L------------|--L------------|--L------------|--L------------|

NH NH NH
H. H Q Q H H. H.
 
 ---------------|-------------------|---------------------|---------------|---------------|
 ---------------|-------------------|---------------------|---------------|---------------|
 ---------------|-------------------|----------12~--------|--L------------|--L------------|
 ---------------|-----------12------|-----L---------------|---------------|---------------|
 ---------------|-------------------|---------------------|---------------|---------------|
 --L------------|--L----------------|---------------------|---------------|---------------|

H. H. H. H.
 
 ---------------|---------------|---------------|---------------|
 ---------------|---------------|---------------|---------------|
 --L------------|--L------------|--L------------|--L------------|
 ---------------|---------------|---------------|---------------|
 ---------------|---------------|---------------|---------------|
 ---------------|---------------|---------------|---------------|

PM PM PM PM PM PM PM PM
S T T E H S T T E H H.
 
 -----------------------|-----------------------|---------------|
 -----------------------|-----------------------|---------------|
 -----------------------|-----------------------|---------------|
 --x--x--x--x-----------|--x--x--x--x-----------|---------------|
 --x--x--x--x-----------|--x--x--x--x-----------|---------------|
 --x--x--x--x-----------|--x--x--x--x-----------|--5------------|

H. H. H. H.
 
 -----------------|---------------|-----------------|---------------|
 -----------------|---------------|-----------------|---------------|
 -----------------|---------------|-----------------|---------------|
 -----------------|---------------|-----------------|---------------|
 -----------------|---------------|-----------------|--3------------|
 --/12------------|--1------------|--/10------------|---------------|

H. H. H. E. E. E. E.
 
 ----------------|---------------|-----------------|------------------|
 ----------------|---------------|-----------------|------------------|
 --2b------------|---------------|-----------------|------------------|
 ----------------|--4------------|--10b------------|------------------|
 ----------------|---------------|-----------------|------------------|
 ----------------|---------------|-----------------|--5---5---5---5---|

H. E. E. E. E. H. H.
 
 -----------------|------------------|-----------------|---------------|
 -----------------|------------------|-----------------|---------------|
 -----------------|------------------|-----------------|---------------|
 -----------------|------------------|-----------------|---------------|
 -----------------|------------------|-----------------|--3------------|
 --/12------------|--1---1---1---1---|--/10------------|---------------|

H. H. H. H.
 
 ----------------|---------------|-----------------|---------------|
 ----------------|---------------|-----------------|---------------|
 --2b------------|---------------|-----------------|---------------|
 ----------------|--4------------|--10b------------|--L------------|
 ----------------|---------------|-----------------|---------------|
 ----------------|---------------|-----------------|---------------|

H.
 
 ----------------|---------------|---------------|---------------|
 ----------------|---------------|---------------|---------------|
 ----------------|---------------|---------------|---------------|
 --L\------------|---------------|---------------|---------------|
 ----------------|---------------|---------------|---------------|
 ----------------|---------------|---------------|---------------|
 ---------------|---------------|---------------|---------------|---------------|
 ---------------|---------------|---------------|---------------|---------------|
 ---------------|---------------|---------------|---------------|---------------|
 ---------------|---------------|---------------|---------------|---------------|
 ---------------|---------------|---------------|---------------|---------------|
 ---------------|---------------|---------------|---------------|---------------|
 ---------------|---------------|---------------|---------------|---------------|
 ---------------|---------------|---------------|---------------|---------------|
 ---------------|---------------|---------------|---------------|---------------|
 ---------------|---------------|---------------|---------------|---------------|
 ---------------|---------------|---------------|---------------|---------------|
 ---------------|---------------|---------------|---------------|---------------|

\1/
H. H. H.
 
 ---------------|-----------------|-----------------|----------------|
 ---------------|-----------------|-----------------|----------------|
 ---------------|--11b------------|--12~------------|--12------------|
 ---------------|-----------------|-----------------|----------------|
 ---------------|-----------------|-----------------|----------------|
 ---------------|-----------------|-----------------|----------------|

W
H S S E H. H. H.
 
 -----------------------|-----------------|-----------------|----------------|
 -----------------------|-----------------|-----------------|----------------|
 --L--------10h-12p-10--|--15b------------|--15b------------|--14------------|
 -----------------------|-----------------|-----------------|----------------|
 -----------------------|-----------------|-----------------|----------------|
 -----------------------|-----------------|-----------------|----------------|

NOTE: THE FOLLOWING PHRASES ARE PLAYED 3 per beat
 
 |---3---| |---3---| |---3---| 

H. E E E E E E E E E
 
 ---------------|--------------------------------------|
 ---------------|--------------------------------------|
 --L------------|--12------12------12------12------12--|
 ---------------|------12------12------12------12------|
 ---------------|--------------------------------------|
 ---------------|--------------------------------------|
 |---3---| |---3---| |---3---| |---3---| |---3---| |---3---| 

[E] [E] [E] [E] [E] [E] [E] [E] [E] [E] [E] [E] [E] [E] [E] [E] [E] [E]  
 
 --------------------------------------|---------------------------------------|
 --------------------------------------|---------------------------------------|
 ------12------12------12------12------|-------12------12------12------12------|
 --12------12------12------12------12--|--/13------13------13------13------13--|
 --------------------------------------|---------------------------------------|
 --------------------------------------|---------------------------------------|
 |---3---| |---3---| |---3---| |---3---| |---3---| |---3---| 

[E] [E] [E] [E] [E] [E] [E] [E] [E] [E] [E] [E] [E] [E] [E] [E] [E] [E]  
 
 --------------------------------------|--------------------------------------|
 --------------------------------------|--------------------------------------|
 --14------14------14------14------14--|------15------15------15------15------|
 ------13------13------13------13------|--12------12------12------12------12--|
 --------------------------------------|--------------------------------------|
 --------------------------------------|--------------------------------------|
 |---3---| |---3---| |---3---| 

E E E E E E E E E Q. Q. H.
 
 ---------------------------------------|-------------------|---------------|
 ---------------------------------------|-------------------|---------------|
 --15------15------15------15--12--14b--|---L------17b------|--L------------|
 ------12------12------12---------------|-------------------|---------------|
 ---------------------------------------|-------------------|---------------|
 ---------------------------------------|-------------------|---------------|

H. H. H. H.
 
 ---------------|-----------------|---------------|-----------------|
 ---------------|-----------------|---------------|-----------------|
 ---------------|-----------------|---------------|-----------------|
 ---------------|-----------------|---------------|-----------------|
 ---------------|-----------------|---------------|-----------------|
 --5------------|--/12------------|--1------------|--/10------------|

H. H. H. H.
 
 ---------------|----------------|---------------|-----------------|
 ---------------|----------------|---------------|-----------------|
 ---------------|--2b------------|---------------|-----------------|
 ---------------|----------------|--4------------|--10b------------|
 --3------------|----------------|---------------|-----------------|
 ---------------|----------------|---------------|-----------------|

E. E. E. E. H. E. E. E. E. H.
 
 ------------------|-----------------|------------------|-----------------|
 ------------------|-----------------|------------------|-----------------|
 ------------------|-----------------|------------------|-----------------|
 ------------------|-----------------|------------------|-----------------|
 ------------------|-----------------|------------------|-----------------|
 --5---5---5---5---|--/12------------|--1---1---1---1---|--/10------------|

H. H. H. H. H.
 
 ---------------|----------------|---------------|---------------|---------------|
 ---------------|----------------|---------------|---------------|---------------|
 ---------------|--2b------------|---------------|---------------|---------------|
 ---------------|----------------|--4------------|--L------------|--L------------|
 --3------------|----------------|---------------|---------------|---------------|
 ---------------|----------------|---------------|---------------|---------------|

Pre-Chorus - TIME SIGNATURE IS BACK TO 4/4
S S S S S S S S S S S S S S S S
 
 ----------------------------------|
 --------------------------3-3-6-6-|
 --3-3-3-3-2-2-2-2-3-3-5-5---------|
 ----------------------------------|
 ----------------------------------|
 ----------------------------------|

S S S S S S S S S S S S S S S S S S S S S S S S S S S S S S S S
 
 ----------------------------------|----------------------------------|
 --4-4-4-4-4-4-4-4-4-4-4-4-4-4-4-4-|--3-3-3-3---------3-3-------------|
 ----------------------------------|----------5-5-5-5-----5-5-3-3-2-2-|
 ----------------------------------|----------------------------------|
 ----------------------------------|----------------------------------|
 ----------------------------------|----------------------------------|

S S S S S S S S S S S S S S S S S S S S S S S S S S S S S S S S
 
 |------------------------------------||---3-3-3-3-3-3-3-3-2-2-2-2-2-2-2-2--||
 |------------------------------------||------------------------------------||
 |*--3-3-3-3-3-3-3-3-2-2-2-2-2-2-2-2-*||*----------------------------------*||
 |*----------------------------------*||*----------------------------------*||
 |------------------------------------||------------------------------------||
 |------------------------------------||------------------------------------||

E S S S S S S S S S S S S S S E S S S S S S S S S S S S S S
 
 ---------------------------------|---------------------------------|
 ---------------------------------|---------------------------------|
 ---------------------------------|--5--5-5-5-5-5-5-3-3-3-3-3-3-3-3-|
 ---------------------------------|--5--5-5-5-5-5-5-5-5-5-5-5-5-5-5-|
 --7--7-7-7-7-7-7-7-7-7-7-7-7-7-7-|---------------------------------|
 --5--5-5-5-5-5-5-5-5-5-5-5-5-5-5-|---------------------------------|

E S S S S S S S S S S S S S S E S S S S S S S S S S S S S S
 
 ---------------------------------|---------------------------------|
 ---------------------------------|---------------------------------|
 ---------------------------------|--3--3-3-3-3-3-3-2-2-2-2-2-2-2-2-|
 ---------------------------------|--3--3-3-3-3-3-3-3-3-3-3-3-3-3-3-|
 --5--5-5-5-5-5-5-5-5-5-5-5-5-5-5-|---------------------------------|
 --3--3-3-3-3-3-3-3-3-3-3-3-3-3-3-|---------------------------------|

S S S S S S S S S S S S S S S S S S S S S S S S S S S S S S S S
 
 ----------------------------------|----------------------------------|
 ----------------------------------|----------------------------------|
 ----------------------------------|----------------------------------|
 ----------------------------------|----------------------------------|
 --3-3-3-3-3-3-3-3-4-4-4-4-4-4-4-4-|--5-5-5-5-5-5-5-5-6-6-6-6-6-6-6-6-|
 --1-1-1-1-1-1-1-1-2-2-2-2-2-2-2-2-|--3-3-3-3-3-3-3-3-4-4-4-4-4-4-4-4-|

S S S S S S S S S S S S S S S S Q Q S S S S S S S S
 
 ----------------------------------|----------------------------|
 ----------------------------------|----------------------------|
 ----------------------------------|--3----3--------------------|
 ----------------------------------|--3----3--------------------|
 --7-7-7-7-7-7-7-7-3-3-3-3-5-5-5-5-|--3----3----3-3-3-3-5-5-5-5-|
 --5-5-5-5-5-5-5-5-1-1-1-1-3-3-3-3-|------------1-1-1-1-3-3-3-3-|

Q Q S S S S S S S S Q Q Q Q W
 
 ----------------------------|----------------------|-------------------|
 ----------------------------|----------------------|-------------------|
 --3----3--------------------|--3----3--------------|--3----------------|
 --3----3--------------------|--3----3--------------|--3----------------|
 --3----3----3-3-3-3-5-5-5-5-|--3----3----5----4----|--3----------------|
 ------------1-1-1-1-3-3-3-3-|------------3----2----|-------------------|
 -------------------|-------------------|
 -------------------|-------------------|
 -------------------|-------------------|
 -------------------|-------------------|
 -------------------|-------------------|
 -------------------|-------------------|

PM PM PM PM PM PM PM PM PM PM
S S S S S S S S S S S S S S S S
 
 --------------------------------------------|
 --------------------------------------------|
 --------------------------------------------|
 --------3-------2----2-------1-------0----0-|
 --0--0----0--0----0----0--0----0--0----0----|
 --------------------------------------------|

PM PM PM PM PM PM PM PM PM PM
S S S S S S S S S S S S S S S S
 
 --------------------------------------------|
 --------------------------------------------|
 --------------------------------------------|
 --------3-------2----2-------1-------0----0-|
 --0--0----0--0----0----0--0----0--0----0----|
 --------------------------------------------|

PM PM PM PM PM PM PM PM PM PM PM PM PM PM PM
S S S S S S S S S S S S S S S S S S S S S S S S H
 
 --------------------------------------------|-----------------------x/--------|
 --------------------------------------------|-----------------------x/--------|
 --------------------------------------------|-----------------------x/--------|
 --------3-------2----2-------1-------0----0-|--------3-------2----2-x/--------|
 --0--0----0--0----0----0--0----0--0----0----|--0--0----0--0----0----x/--------|
 --------------------------------------------|-----------------------x/--------|

PM PM PM PM PM PM PM PM PM PM
S S S S S S S S S S S S S S S S
 
 |---------------------------------------------|
 |---------------------------------------------|
 |*--------------------------------------------|
 |*--------3-------2----2-------1-------0----0-|
 |---0--0--3-0--0--2-0--2-0--0--1-0--0--0-0--0-|
 |---------------------------------------------|

PM PM PM PM PM PM PM PM PM
S S S S S S S S S S S S S S S S
 
 -------------------------------------3-3-3--||
 -------------------------------------3-3-3--||
 -------------------------------------3-3-3-*||
 --------3-------2----2-------1-------------*||
 --0--0--3-0--0--2-0--2-0--0--1-0--0---------||
 --------------------------------------------||

Duration Legend
 
 ---------------

W - whole
H - half
Q - quarter
E - 8th
S - 16th
T - 32nd
X - 64th
. - note dotted
|-n-| - n-tuplets
Tablature Legend
 
 ----------------

L - tied note
x - dead note
NH - natural harmonic
h - hammer on
p - pull off
b - bend
\n/ - tremolo bar dip
/ - slide into from below or out of upwards
\ - slide into from above or out of downwards
~ - vibrato
W - wide vibrato

Important: The song above is NOT stored on the Chordie server. The original song is hosted at www.guitaretab.com. Chordie works as a search engine and provides on-the-fly formatting. Chordie does not index songs against artists'/composers' will. To remove this song please click here.

Text color:
Chord color:
Chord grids: 
Font size:    
Page size: 

E
Rate #1 of 3 versions

Login - add to songbook

SHARE PAGE  



You need to log in to post comments