Guitar Tabs, Chords and Lyrics
Server problems seems to be fixed. Chordie has been experiencing problems with songs disappearing. These issues now seems to be fixed, but still verifying the fix. If you find anything strange, please email admin@chordie.com.


Fillip  Muse

Tuning - Normal Tuning
Tempo - 128 bpm
[0.15] - Intro
 
 e|-----------------------x---x---x--------------|
 B|-----------------------x---x---x--------------|
 G|-12-12-12-12-12-12-12--12--12--12-12-12-12-12-|x4
 D|-x--x--x--x--x--x--x---12--12--12-x--x--x--x--|
 A|-x--x--x--x--x--x--x---10--10--10-x--x--x--x--|
 E|-x--x--x--x--x--x--x---10--10--10-x--x--x--x--|
 e|-------------------------------------------------|
 B|-12-12-X--X--12-12-X--X--12-12-X--X--12-12-X--X--|
 G|-12-12-X--X--X--X--X--X--12-12-X--X--X--X--X--X--|x4
 D|-X--X--X--X--12-12-X--X--X--X--X--X--12-12-X--X--|
 A|-X--X--10-10-X--X--10-10-X--X--10-10-X--X--10-10-|
 E|-X--X--X--X--X--X--X--X--X--X--X--X--X--X--X--X--|
 e|-------------------------|
 B|-12-12-X--X--12-12-X--X--|
 G|-12-12-X--X--X--X--X--X--|
 D|-X--X--X--X--12-12-X--X--|
 A|-X--X--10-10-X--X--10-10-|
 E|-X--X--X--X--X--X--X--X--|

[0.32] - Verse 1
 
 e|----------------------------------|----------------------------------|
 B|--12------12------12------12------|--12------12------12------12------|
 G|--12------x-------12------x-------|--12------x-------12------x-------|x3
 D|----------12--------------12------|----------12--------------12------|
 A|------10------10------10------10--|------10------10------10------10--|
 E|----------------------------------|----------------------------------|
 e|----------------------------------|----------------|
 B|--12------12------12------12------|------12--12----|
 G|--12------x-------12------x-------|------12--12----|
 D|----------12--------------12------|------12--12----|
 A|------10------10------10------10--|--10------------|
 E|----------------------------------|----------------|

[0.46] - Chorus
 
 e|--3--3--3--3--3--3--3--3--|--------------------------|
 B|--3--3--3--3--3--3--3--3--|--3--3--3--3--3--3--3--3--|
 G|--0--0--0--0--0--0--0--0--|--2--2--2--2--2--2--2--2--|
 D|--0--0--0--0--0--0--0--0--|--0--0--0--0--0--0--0--0--|
 A|--------------------------|--0--0--0--0--0--0--0--0--|
 E|--3--3--3--3--3--3--3--3--|--2--2--2--2--2--2--2--2--|
 e|--0--0--0--0--0--0--0--0--|--------------------------|
 B|--0--0--0--0--0--0--0--0--|--5--5--5--5--5--5--5--5--|
 G|--0--0--0--0--0--0--0--0--|--4--4--4--4--4--4--4--4--|
 D|--2--2--2--2--2--2--2--2--|--2--2--2--2--2--2--2--2--|
 A|--2--2--2--2--2--2--2--2--|--------------------------|
 E|--0--0--0--0--0--0--0--0--|--4--4--4--4--4--4--4--4--|
 e|--------------------------|--------------------------|
 B|--5--5--5--5--5--5--5--5--|--7--7--7--7--7--7--7--7--|
 G|--5--5--5--5--5--5--5--5--|--7--7--7--7--7--7--7--7--|
 D|--5--5--5--5--5--5--5--5--|--7--7--7--7--7--7--7--7--|
 A|--3--3--3--3--3--3--3--3--|--5--5--5--5--5--5--5--5--|
 E|--3--3--3--3--3--3--3--3--|--5--5--5--5--5--5--5--5--|
 e|--2--2--2--2--2--2--2--2--|--2--2--2--2--2--2--2--2--|
 B|--2--2--2--2--2--2--2--2--|--2--2--2--2--2--2--2--2--|
 G|--2--2--2--2--2--2--2--2--|--3--3--3--3--3--3--3--3--|
 D|--4--4--4--4--4--4--4--4--|--4--4--4--4--4--4--4--4--|
 A|--4--4--4--4--4--4--4--4--|--4--4--4--4--4--4--4--4--|
 E|--2--2--2--2--2--2--2--2--|--2--2--2--2--2--2--2--2--|

[1.01] - Fill
 
 e|-----------------------x---x---x--------------|
 B|-----------------------x---x---x--------------|
 G|-12-12-12-12-12-12-12--12--12--12-12-12-12-12-|x2
 D|-x--x--x--x--x--x--x---12--12--12-x--x--x--x--|
 A|-x--x--x--x--x--x--x---10--10--10-x--x--x--x--|
 E|-x--x--x--x--x--x--x---10--10--10-x--x--x--x--|
 e|---------------------x---x---x------------|
 B|---------------------x---x---x------------|
 G|-x-x-12-12-12-12-12--12--12--12-x-x-12-12-|
 D|-x-x-x--x--x--x--x---12--12--12-x-x--x--x-|
 A|-x-x-x--x--x--x--x---10--10--10-x-x--x--x-|
 E|-x-x-x--x--x--x--x---10--10--10-x-x--x--x-|
 e|---------------------x---x---x------------|
 B|---------------------x---x---x------------|
 G|-x-x-12-12-12-12-12--12--12--12-----------|
 D|-x-x-x--x--x--x--x---12--12--12-----------|
 A|-x-x-x--x--x--x--x---10--10--10-----------|
 E|-x-x-x--x--x--x--x---10--10--10-----------|

[1.08] - Verse 2
 
 e|----------------------------------|----------------------------------|
 B|--12------12------12------12------|--12------12------12------12------|
 G|--12------x-------12------x-------|--12------x-------12------x-------|x3
 D|----------12--------------12------|----------12--------------12------|
 A|------10------10------10------10--|------10------10------10------10--|
 E|----------------------------------|----------------------------------|
 e|----------------------------------|----------------|
 B|--12------12------12------12------|------12--12----|
 G|--12------x-------12------x-------|------12--12----|
 D|----------12--------------12------|------12--12----|
 A|------10------10------10------10--|--10------------|
 E|----------------------------------|----------------|

[1.24] - Chorus
 
 e|--3--3--3--3--3--3--3--3--|--------------------------|
 B|--3--3--3--3--3--3--3--3--|--3--3--3--3--3--3--3--3--|
 G|--0--0--0--0--0--0--0--0--|--2--2--2--2--2--2--2--2--|
 D|--0--0--0--0--0--0--0--0--|--0--0--0--0--0--0--0--0--|
 A|--------------------------|--0--0--0--0--0--0--0--0--|
 E|--3--3--3--3--3--3--3--3--|--2--2--2--2--2--2--2--2--|
 e|--0--0--0--0--0--0--0--0--|--------------------------|
 B|--0--0--0--0--0--0--0--0--|--5--5--5--5--5--5--5--5--|
 G|--0--0--0--0--0--0--0--0--|--4--4--4--4--4--4--4--4--|
 D|--2--2--2--2--2--2--2--2--|--2--2--2--2--2--2--2--2--|
 A|--2--2--2--2--2--2--2--2--|--------------------------|
 E|--0--0--0--0--0--0--0--0--|--4--4--4--4--4--4--4--4--|
 e|--------------------------|--------------------------|
 B|--5--5--5--5--5--5--5--5--|--7--7--7--7--7--7--7--7--|
 G|--5--5--5--5--5--5--5--5--|--7--7--7--7--7--7--7--7--|
 D|--5--5--5--5--5--5--5--5--|--7--7--7--7--7--7--7--7--|
 A|--3--3--3--3--3--3--3--3--|--5--5--5--5--5--5--5--5--|
 E|--3--3--3--3--3--3--3--3--|--5--5--5--5--5--5--5--5--|
 e|--2--2--2--2--2--2--2--2--|--2--2--2--2--2--2--2--2--|
 B|--2--2--2--2--2--2--2--2--|--2--2--2--2--2--2--2--2--|
 G|--2--2--2--2--2--2--2--2--|--3--3--3--3--3--3--3--3--|
 D|--4--4--4--4--4--4--4--4--|--4--4--4--4--4--4--4--4--|
 A|--4--4--4--4--4--4--4--4--|--4--4--4--4--4--4--4--4--|
 E|--2--2--2--2--2--2--2--2--|--2--2--2--2--2--2--2--2--|

[1.39] - Fill
 
 e|--------------------------|--------------------------|
 B|--------------------------|--------------------------|
 G|--4--4--4--4--4--4--4--4--|--3--3--3--3--3--3--3--3--|
 D|--------------------------|--------------------------|
 A|--2--2--2--2--2--2--2--2--|--1--1--1--1--1--1--1--1--|
 E|--------------------------|--------------------------|

[1.44] - Bridge (Mainly piano)
[Gm] [F#]  
 
 e|------------|------------|------------|------------|
 B|------------|------------|------------|------------|
 G|------------|------------|------------|------------|x2
 D|------------|------------|------------|------------|
 A|------------|------------|------------|------------|
 E|------------|------------|------------|------------|

[Fm] [E] [Fm] [E]  
 
 e|------------|------------|------------|------------|
 B|------------|------------|------------|------------|
 G|------------|------------|------------|------------|
 D|------------|------------|------------|------------|
 A|------------|------------|------------|------------|
 E|------------|------------|------------|------------|

[Em]  
 
 e|------------|------------|
 B|------------|------------|
 G|------------|------------|
 D|------------|------------|
 A|------------|------------|
 E|------------|------------|
 e|-----------------------------|--------------0-----------|
 B|-----------------------------|--------0--------0--------|
 G|--------------0--0--0--0--0--|--0--------0--------0-----|
 D|--------------2--2--2--2--2--|-----2-----------------2--|
 A|--2--2--2--2--2--2--2--2--2--|--------------------------|
 E|--0--0--0--0--0--0--0--0--0--|--------------------------|
 e|----------------------------------------------------|
 B|----------------------------------------------------|
 G|-12-12-12-12--12-12-12-12--12-12-12-12--12-12-12-12-|x4
 D|-x--x--x--x---x--x--x--x---x--x--x--x---x--x--x--x--|
 A|-x--x--x--x---x--x--x--x---x--x--x--x---x--x--x--x--|
 E|-x--x--x--x---x--x--x--x---x--x--x--x---x--x--x--x--|
 e|--------------------|----------------------|
 B|--------------------|----------------------|
 G|------4--4--2--4--7-|-7------4--4--2--4--9-|
 D|--------------------|----------------------|
 A|------2--2--0--2--5-|-5------2--2--0--2--7-|
 E|--------------------|----------------------|
 e|---------------------|-----------------------|
 B|---------------------|-----------------------|
 G|-9-----4--4--2--4--9-|-9--7----5--5--4--2--4-|
 D|---------------------|-----------------------|
 A|-7-----2--2--0--2--7-|-7--5----3--3--2--0--2-|
 E|---------------------|-----------------------|

[2.54] - Chorus
 
 e|--3--3--3--3--3--3--3--3--|--------------------------|
 B|--3--3--3--3--3--3--3--3--|--3--3--3--3--3--3--3--3--|
 G|--0--0--0--0--0--0--0--0--|--2--2--2--2--2--2--2--2--|
 D|--0--0--0--0--0--0--0--0--|--0--0--0--0--0--0--0--0--|
 A|--------------------------|--0--0--0--0--0--0--0--0--|
 E|--3--3--3--3--3--3--3--3--|--2--2--2--2--2--2--2--2--|
 e|--0--0--0--0--0--0--0--0--|--------------------------|
 B|--0--0--0--0--0--0--0--0--|--5--5--5--5--5--5--5--5--|
 G|--0--0--0--0--0--0--0--0--|--4--4--4--4--4--4--4--4--|
 D|--2--2--2--2--2--2--2--2--|--2--2--2--2--2--2--2--2--|
 A|--2--2--2--2--2--2--2--2--|--------------------------|
 E|--0--0--0--0--0--0--0--0--|--4--4--4--4--4--4--4--4--|
 e|--------------------------|--------------------------|
 B|--5--5--5--5--5--5--5--5--|--7--7--7--7--7--7--7--7--|
 G|--5--5--5--5--5--5--5--5--|--7--7--7--7--7--7--7--7--|
 D|--5--5--5--5--5--5--5--5--|--7--7--7--7--7--7--7--7--|
 A|--3--3--3--3--3--3--3--3--|--5--5--5--5--5--5--5--5--|
 E|--3--3--3--3--3--3--3--3--|--5--5--5--5--5--5--5--5--|
 e|--------------------------|--------------------------|
 B|--------------------------|--------------------------|
 G|--9--9--9--9--9--9--9--9--|--9--7--7--7--7--7--7--7--|
 D|--------------------------|--------------------------|
 A|--7--7--7--7--7--7--7--7--|--7--5--5--5--5--5--5--5--|
 E|--------------------------|--------------------------|
 e|--3--3--3--3--3--3--3--3--|--------------------------|
 B|--3--3--3--3--3--3--3--3--|--3--3--3--3--3--3--3--3--|
 G|--0--0--0--0--0--0--0--0--|--2--2--2--2--2--2--2--2--|
 D|--0--0--0--0--0--0--0--0--|--0--0--0--0--0--0--0--0--|
 A|--------------------------|--0--0--0--0--0--0--0--0--|
 E|--3--3--3--3--3--3--3--3--|--2--2--2--2--2--2--2--2--|
 e|--0--0--0--0--0--0--0--0--|--------------------------|
 B|--0--0--0--0--0--0--0--0--|--5--5--5--5--5--5--5--5--|
 G|--0--0--0--0--0--0--0--0--|--4--4--4--4--4--4--4--4--|
 D|--2--2--2--2--2--2--2--2--|--2--2--2--2--2--2--2--2--|
 A|--2--2--2--2--2--2--2--2--|--------------------------|
 E|--0--0--0--0--0--0--0--0--|--4--4--4--4--4--4--4--4--|
 e|--------------------------|--------------------------|
 B|--5--5--5--5--5--5--5--5--|--7--7--7--7--7--7--7--7--|
 G|--5--5--5--5--5--5--5--5--|--7--7--7--7--7--7--7--7--|
 D|--5--5--5--5--5--5--5--5--|--7--7--7--7--7--7--7--7--|
 A|--3--3--3--3--3--3--3--3--|--5--5--5--5--5--5--5--5--|
 E|--3--3--3--3--3--3--3--3--|--5--5--5--5--5--5--5--5--|
 e|--2-----------------------|--------------------------|
 B|--2-----------------------|--------------------------|
 G|--2-----------------------|--------------------------|
 D|--4-----------------------|--------------------------|
 A|--4-----------------------|--------------------------|
 E|--2-----------------------|--------------------------|
 e|--2-----------------------|--------------2-----------|
 B|--2-----------------------|-----------------2--------|
 G|--3-----------------------|--------------------3-----|
 D|--4-----------------------|--------------------------|
 A|--4-----------------------|--------------------------|
 E|--2-----------------------|--------------------------|
 e|--2-----------------------|--------------------------|
 B|-----2-----2--------------|--------------------------|
 G|--------2-----2-----2-----|--------------------------|
 D|-----------------4-----4--|-----4-----4--------------|
 A|--------------------------|--4-----4-----4-----4-----|
 E|--------------------------|-----------------2-----2--|
 e|--------------------------|--------------2-----------|--2--||
 B|--------2-----2-----------|-----------------2--------|--2--||
 G|-----------3-----3--------|--------3-----------3-----|--2--||
 D|-----4--------------4-----|-----------4-----------4--|--4--||
 A|-----------------------4--|--------------------------|--4--||
 E|--2-----------------------|--2-----------------------|--2--||


Important: The song above is NOT stored on the Chordie server. The original song is hosted at www.guitaretab.com. Chordie works as a search engine and provides on-the-fly formatting. Chordie does not index songs against artists'/composers' will. To remove this song please click here.

Text color:
Chord color:
Chord grids: 
Font size:    
Page size: 

E Em F# Fm Gm
Rate #1 of 3 versions

Jango Player

Login - add to songbook

SHARE PAGE  



You need to log in to post comments