Guitar Tabs, Chords and Lyrics
Server problems seems to be fixed. Chordie has been experiencing problems with songs disappearing. These issues now seems to be fixed, but still verifying the fix. If you find anything strange, please email admin@chordie.com.


When It Comes to You  MxPx

 
 -------------------------------------------------------------------------- 

When It Comes to You--MXPX
 
 ---------------------------------------------------------------------------

Tabbed by: Nofxmike
Email:N/A
Album: Plans Within Plans (2012)
Track: No. 11
Chords used: B5, E5, A5, D#5, F#5, C#5, C#m, G#5
Intro:
Lead Fill 1:
[E5] [D#5] [F#5]  
 
 e|---|---------------------------------|
 B|---|---------------------------------|
 G|---|-9---9---9-9-9-9-8--8-8-11--11-11|
 D|---|-x---x---x-x-x-x-x--x-x-x---x--x-|
 A|---|-7---7---7-7-7-7-6--6-6-9---9--9-|
 E|---|---------------------------------|

Rhythm Guitar fill 1:
[B5] [E5]  
 
 e|---|---------------------------------|
 B|---|---------------------------------|
 G|4-4|---------------------------------|
 D|4-4|-2---2---2-2-2-2-2--2-2-2---2--2-|
 A|2-2|-2---2---2-2-2-2-2--2-2-2---2--2-|
 E|---|-0---0---0-0-0-0-0--0-0-0---0--0-|Repeat x1

^ ^
Lead Guitar fill 1:
[E5] [D#5] [F#5]  
 
 e|---------------------------------|
 B|---------------------------------|
 G|-9---9---9-9-9-9-8--8-8-11--11-11|
 D|-x---x---x-x-x-x-x--x-x-x---x--x-|
 A|-7---7---7-7-7-7-6--6-6-9---9--9-|
 E|---------------------------------|

Rhythm Guitar fill 1:
[A5]  
 
 e|---------------------------------|
 B|---------------------------------|
 G|-2---2---2-2-2-2-2--2-2-2---2--2-|
 D|-2---2---2-2-2-2-2--2-2-2---2--2-|
 A|-0---0---0-0-0-0-0--0-0-0---0--0-|
 E|---------------------------------|Repeat x1 THEN Repeat ALL X1

Verses:
1)I would like my heart
2)When having means a whole lot of
Lead Guitar:
[E5] [D#5] [F#5]  
 
 e|---------------------------------|
 B|---------------------------------|
 G|-9---9---9-9-9-9-8--8-8-11--11-11|
 D|-x---x---x-x-x-x-x--x-x-x---x--x-|
 A|-7---7---7-7-7-7-6--6-6-9---9--9-|
 E|---------------------------------|

Rhythm Guitar:
[E5]  
 
 e|---------------------------------|
 B|---------------------------------|
 G|---------------------------------|
 D|-2-------------------------------|
 A|-2-------------------------------|
 E|-0-------------------------------|

1)back Preferably in one
2)nothing It's no use having
Lead Guitar:
[E5] [D#5] [F#5]  
 
 e|---------------------------------|
 B|---------------------------------|
 G|-9---9---9-9-9-9-8--8-8-11--11-11|
 D|-x---x---x-x-x-x-x--x-x-x---x--x-|
 A|-7---7---7-7-7-7-6--6-6-9---9--9-|
 E|---------------------------------|

Rhythm Guitar:
[E5]  
 
 e|---------------------------------|
 B|---------------------------------|
 G|---------------------------------|
 D|(2)------------------------------|
 A|(2)------------------------------|
 E|(0)------------------------------|

1)piece
2)more When we're
Lead Guitar:
[E5] [D#5] [F#5]  
 
 e|---------------------------------|
 B|---------------------------------|
 G|-9---9---9-9-9-9-8--8-8-11--11-11|
 D|-x---x---x-x-x-x-x--x-x-x---x--x-|
 A|-7---7---7-7-7-7-6--6-6-9---9--9-|
 E|---------------------------------|

Rhythm Guitar:
[A5]  
 
 e|---------------------------------|
 B|---------------------------------|
 G|-2-------------------------------|
 D|-2-------------------------------|
 A|-0-------------------------------|
 E|---------------------------------|

1)and if you lost it,
2)long gone and forgotten
Lead Guitar:
[E5] [D#5] [F#5]  
 
 e|---------------------------------|
 B|---------------------------------|
 G|-9---9---9-9-9-9-8--8-8-11--11-11|
 D|-x---x---x-x-x-x-x--x-x-x---x--x-|
 A|-7---7---7-7-7-7-6--6-6-9---9--9-|
 E|---------------------------------|

Rhythm Guitar:
[A5]  
 
 e|---------------------------------|
 B|---------------------------------|
 G|(2)------------------------------|
 D|(2)------------------------------|
 A|(0)------------------------------|
 E|---------------------------------|

1)wonders never
2)What did we live
Lead Guitar:
[E5] [D#5] [F#5]  
 
 e|---------------------------------|
 B|---------------------------------|
 G|-9---9---9-9-9-9-8--8-8-11--11-11|
 D|-x---x---x-x-x-x-x--x-x-x---x--x-|
 A|-7---7---7-7-7-7-6--6-6-9---9--9-|
 E|---------------------------------|

Rhythm Guitar:
[A5]  
 
 e|---------------------------------|
 B|---------------------------------|
 G|(2)------------------------------|
 D|(2)------------------------------|
 A|(0)------------------------------|
 E|---------------------------------|

1)cease I would like
2)for? When will a
Lead Guitar:
[E5] [D#5] [F#5]  
 
 e|---------------------------------|
 B|---------------------------------|
 G|-9---9---9-9-9-9-8--8-8-11--11-11|
 D|-x---x---x-x-x-x-x--x-x-x---x--x-|
 A|-7---7---7-7-7-7-6--6-6-9---9--9-|
 E|---------------------------------|

Rhythm Guitar:
[E5]  
 
 e|---------------------------------|
 B|---------------------------------|
 G|---------------------------------|
 D|-2-------------------------------|
 A|-2-------------------------------|
 E|-0-------------------------------|

1)to go there I'd like to
2)change in heart come If
Lead Guitar:
[E5] [D#5] [F#5]  
 
 e|---------------------------------|
 B|---------------------------------|
 G|-9---9---9-9-9-9-8--8-8-11--11-11|
 D|-x---x---x-x-x-x-x--x-x-x---x--x-|
 A|-7---7---7-7-7-7-6--6-6-9---9--9-|
 E|---------------------------------|

Rhythm Guitar:
[E5]  
 
 e|---------------------------------|
 B|---------------------------------|
 G|---------------------------------|
 D|(2)------------------------------|
 A|(2)------------------------------|
 E|(0)------------------------------|

1)leave it all be-
2)they exist at
Lead Guitar:
[E5] [D#5] [F#5]  
 
 e|---------------------------------|
 B|---------------------------------|
 G|-9---9---9-9-9-9-8--8-8-11--11-11|
 D|-x---x---x-x-x-x-x--x-x-x---x--x-|
 A|-7---7---7-7-7-7-6--6-6-9---9--9-|
 E|---------------------------------|

Rhythm Guitar:
[E5]  
 
 e|---------------------------------|
 B|---------------------------------|
 G|---------------------------------|
 D|(2)------------------------------|
 A|(2)------------------------------|
 E|(0)------------------------------|

1)hind I'm not sure
2)all It's not al-
Lead Guitar:
[E5] [D#5] [F#5]  
 
 e|---------------------------------|
 B|---------------------------------|
 G|-9---9---9-9-9-9-8--8-8-11--11-11|
 D|-x---x---x-x-x-x-x--x-x-x---x--x-|
 A|-7---7---7-7-7-7-6--6-6-9---9--9-|
 E|---------------------------------|

Rhythm Guitar:
[A5]  
 
 e|---------------------------------|
 B|---------------------------------|
 G|-2-------------------------------|
 D|-2-------------------------------|
 A|-0-------------------------------|
 E|---------------------------------|

1)what the future holds, or
2)ways so easy
Lead Guitar:
[E5] [D#5] [F#5]  
 
 e|---------------------------------|
 B|---------------------------------|
 G|-9---9---9-9-9-9-8--8-8-11--11-11|
 D|-x---x---x-x-x-x-x--x-x-x---x--x-|
 A|-7---7---7-7-7-7-6--6-6-9---9--9-|
 E|---------------------------------|

Rhythm Guitar:
[A5]  
 
 e|---------------------------------|
 B|---------------------------------|
 G|(2)------------------------------|
 D|(2)------------------------------|
 A|(0)------------------------------|
 E|---------------------------------|

1)what it is I'll
2)to answer when they
Lead Guitar:
[E5] [D#5] [F#5]  
 
 e|---------------------------------|
 B|---------------------------------|
 G|-9---9---9-9-9-9-8--8-8-11--11-11|
 D|-x---x---x-x-x-x-x--x-x-x---x--x-|
 A|-7---7---7-7-7-7-6--6-6-9---9--9-|
 E|---------------------------------|

Rhythm Guitar:
[A5]  
 
 e|---------------------------------|
 B|---------------------------------|
 G|(2)------------------------------|
 D|(2)------------------------------|
 A|(0)------------------------------|
 E|---------------------------------|

1)find
2)call
Lead Guitar:
[E5] [D#5] [F#5]  
 
 e|---------------------------------|
 B|---------------------------------|
 G|-9---9---9-9-9-9-8--8-8-11--11-11|
 D|-x---x---x-x-x-x-x--x-x-x---x--x-|
 A|-7---7---7-7-7-7-6--6-6-9---9--9-|
 E|---------------------------------|

Rhythm Guitar:
[E5]  
 
 e|---------------------------------|
 B|---------------------------------|
 G|---------------------------------|
 D|-2-------------------------------|
 A|-2-------------------------------|
 E|-0-------------------------------|End Rhythm Fig 1

Prechorus:
1)I know it won't be the same
2)Better days will come
Lead Guitar:
[E5] [D#5] [F#5]  
 
 e|---------------------------------|
 B|---------------------------------|
 G|-9---9---9-9-9-9-8--8-8-11--11-11|
 D|-x---x---x-x-x-x-x--x-x-x---x--x-|
 A|-7---7---7-7-7-7-6--6-6-9---9--9-|
 E|---------------------------------|

Rhythm Guitar Fig 2:
[C#5]  
 
 e|---------------------------------|
 B|---------------------------------|
 G|-6-------------------------------|
 D|-6-------------------------------|
 A|-4-------------------------------|
 E|---------------------------------|

1)I don't ex-
2)and I be-
[E5] [D#5] [F#5]  
 
 e|---------------------------------|
 B|---------------------------------|
 G|-9---9---9-9-9-9-8--8-8-11--11-11|
 D|-x---x---x-x-x-x-x--x-x-x---x--x-|
 A|-7---7---7-7-7-7-6--6-6-9---9--9-|
 E|---------------------------------|

Rhythm Guitar Fig 2:
[C#5]  
 
 e|---------------------------------|
 B|---------------------------------|
 G|(6)------------------------------|
 D|(6)------------------------------|
 A|(4)------------------------------|
 E|---------------------------------|

1)pect it to
2)lieve it's true
Lead Guitar:
[E5] [D#5] [F#5]  
 
 e|---------------------------------|
 B|---------------------------------|
 G|-9---9---9-9-9-9-8--8-8-11--11-11|
 D|-x---x---x-x-x-x-x--x-x-x---x--x-|
 A|-7---7---7-7-7-7-6--6-6-9---9--9-|
 E|---------------------------------|

Rhythm Guitar:
[A5]  
 
 e|---------------------------------|
 B|---------------------------------|
 G|-2-------------------------------|
 D|-2-------------------------------|
 A|-0-------------------------------|
 E|---------------------------------|

1)It's
2)It's
Lead Guitar:
[E5] [D#5] [F#5]  
 
 e|---------------------------------|
 B|---------------------------------|
 G|-9---9---9-9-9-9-8--8-8-11--11-11|
 D|-x---x---x-x-x-x-x--x-x-x---x--x-|
 A|-7---7---7-7-7-7-6--6-6-9---9--9-|
 E|---------------------------------|

Rhythm Guitar:
[A5]  
 
 e|---------------------------------|
 B|---------------------------------|
 G|(2)------------------------------|
 D|(2)------------------------------|
 A|(0)------------------------------|
 E|---------------------------------|

1)hard to welcome change
2)weird to see things change
Lead Guitar:
[E5] [D#5] [F#5]  
 
 e|---------------------------------|
 B|---------------------------------|
 G|-9---9---9-9-9-9-8--8-8-11--11-11|
 D|-x---x---x-x-x-x-x--x-x-x---x--x-|
 A|-7---7---7-7-7-7-6--6-6-9---9--9-|
 E|---------------------------------|

Rhythm Guitar:
[E5]  
 
 e|---------------------------------|
 B|---------------------------------|
 G|---------------------------------|
 D|-2-------------------------------|
 A|-2-------------------------------|
 E|-0-------------------------------|

1) When it comes to
2) When it comes to
Lead Guitar:
[E5] [D#5] [F#5]  
 
 e|---------------------------------|
 B|---------------------------------|
 G|-9---9---9-9-9-9-8--8-8-11--11-11|
 D|-x---x---x-x-x-x-x--x-x-x---x--x-|
 A|-7---7---7-7-7-7-6--6-6-9---9--9-|
 E|---------------------------------|

Rhythm Guitar:
[E5]  
 
 e|---------------------------------|
 B|---------------------------------|
 G|---------------------------------|
 D|(2)------------------------------|
 A|(2)------------------------------|
 E|(0)------------------------------|

1)you
2)you
Lead Guitar:
[E5] [D#5] [F#5]  
 
 e|---------------------------------|
 B|---------------------------------|
 G|-9---9---9-9-9-9-8--8-8-11--11-11|
 D|-x---x---x-x-x-x-x--x-x-x---x--x-|
 A|-7---7---7-7-7-7-6--6-6-9---9--9-|
 E|---------------------------------|

Rhythm Guitar:
[B5]  
 
 e|---------------------------------|
 B|---------------------------------|
 G|-4-------------------------------|
 D|-4-------------------------------|
 A|-2-------------------------------|
 E|---------------------------------|End Rhythm Fig 2.

Chorus/Refrain:
1)Whenit comes to you,
2)Whenit comes to you,
3)Whenit comes to you,
Rhythm Guitar:
[E5] [B5] [A5]  
 
 e|---------------------|
 B|---------------------|
 G|----------4-----4--2-|
 D|-2-2------4-----4--2-|
 A|-2-2------2-----2--0-|
 E|-0-0-----------------|

^ ^
1)I can't ig- nore
2)I can't ig- nore
3)I can't be sure
[A5] [B5] [C#5]  
 
 e|---------------------------|
 B|---------------------------|
 G|(2)2-2-2-2-4-4-4-4-6-6-6-6-|
 D|(2)2-2-2-2-4-4-4-4-6-6-6-6-|
 A|(0)0-0-0-0-2-2-2-2-4-4-4-4-|
 E|---------------------------|

1)Whenit comes to you,
2)Whenit comes to you,
3)Whenit comes to you,
Rhythm Guitar:
[E5] [B5] [A5]  
 
 e|---------------------|
 B|---------------------|
 G|----------4-----4--2-|
 D|-2-2------4-----4--2-|
 A|-2-2------2-----2--0-|
 E|-0-0-----------------|

^ ^
1)my heart gets sore
2)my heart gets sore
3)I'm out the door
[A5] [B5] [C#5] [C#m] [B5]  
 
 e|--------------------------|---|---|
 B|-------------------------5|---|---|
 G|(2)2-2-2-2-4-4-4-4-6-6-6-6|---|4-4|
 D|(2)2-2-2-2-4-4-4-4-6-6-6-6|---|4-4|
 A|(0)0-0-0-0-2-2-2-2-4-4-4-4|---|2-2|
 E|--------------------------|---|---|Back to verses(C#m First and Third time only)

Let Ring-----|^ ^
Interlude:
Lead Guitar riff:
[C#5]  
 
 e|------------------|
 B|------------------|
 G|------------------|
 D|-----6------4-----|
 A|-4-4---4--7---6-7-|
 E|------------------|
 PM|-----------------|Repeat X4

Rhythm Guitar:
Played with Lead guitar riff:
[A5]  
 
 e|-----------------|
 B|-----------------|
 G|-----------------|
 D|-7-7-7-7-7-7-7-7-|
 A|-7-7-7-7-7-7-7-7-|
 E|-5-5-5-5-5-5-5-5-|

[G#5]  
 
 e|-----------------|
 B|-----------------|
 G|-----------------|
 D|-6-6-6-6-6-6-6-6-|
 A|-6-6-6-6-6-6-6-6-|
 E|-4-4-4-4-4-4-4-4-|

[C#5]  
 
 e|-----------------|
 B|-----------------|
 G|-6-6-6-6-6-6-6-6-|
 D|-6-6-6-6-6-6-6-6-|
 A|-4-4-4-4-4-4-4-4-|
 E|-----------------|End Interlude

Bridge:
1)I couldn't lie,
2)I couldn't hide,
3)I couldn't lie,
Lead Guitar riff:
[C#5]  
 
 e|------------------|
 B|------------------|
 G|------------------|
 D|-----6------4-----|
 A|-4-4---4--7---6-7-|
 E|------------------|

Rhythm Guitar:
Played with Lead guitar riff:
[A5]  
 
 e|-----------------|
 B|-----------------|
 G|-----------------|
 D|-7-7-7-7-7-7-7-7-|
 A|-7-7-7-7-7-7-7-7-|
 E|-5-5-5-5-5-5-5-5-|

1)even when I
2)couldn't hide out
3)even when I
Lead Guitar riff:
[C#5]  
 
 e|------------------|
 B|------------------|
 G|------------------|
 D|-----6------4-----|
 A|-4-4---4--7---6-7-|
 E|------------------|

Rhthym Guitar:
[G#5]  
 
 e|-----------------|
 B|-----------------|
 G|-----------------|
 D|-6-6-6-6-6-6-6-6-|
 A|-6-6-6-6-6-6-6-6-|
 E|-4-4-4-4-4-4-4-4-|

1)wanted to
2)from the truth
3)wanted to
Lead Guitar riff:
[C#5]  
 
 e|------------------|
 B|------------------|
 G|------------------|
 D|-----6------4-----|
 A|-4-4---4--7---6-7-|
 E|------------------|

Rhthym Guitar:
[C#5]  
 
 e|-----------------|
 B|-----------------|
 G|-6-6-6-6-6-6-6-6-|
 D|-6-6-6-6-6-6-6-6-|
 A|-4-4-4-4-4-4-4-4-|
 E|-----------------|

3)'cause when it comes to
Lead Guitar:
[C#5]  
 
 e|------------------|
 B|------------------|
 G|------------------|
 D|-----6------4-----|
 A|-4-4---4--7---6-7-|
 E|------------------|

Rhthym Guitar:
[C#5]  
 
 e|-----------------|
 B|-----------------|
 G|-6-6-6-6-6-6-6-6-|
 D|-6-6-6-6-6-6-6-6-|
 A|-4-4-4-4-4-4-4-4-|
 E|-----------------|

Outro:
1)you
Lead Guitar fill 1:
[E5] [D#5] [F#5]  
 
 e|---------------------------------|
 B|---------------------------------|
 G|-9---9---9-9-9-9-8--8-8-11--11-11|
 D|-x---x---x-x-x-x-x--x-x-x---x--x-|
 A|-7---7---7-7-7-7-6--6-6-9---9--9-|
 E|---------------------------------|

Rhythm Guitar fill 1:
[B5]  
 
 e|---------------------------------|
 B|---------------------------------|
 G|-4---4---4-4-4-4-4--4-4-4---4--4-|
 D|-4---4---4-4-4-4-4--4-4-4---4--4-|
 A|-2---2---2-2-2-2-2--2-2-2---2--2-|
 E|---------------------------------| 

(no vocals)
Lead Guitar fill 1:
[E5] [D#5] [C#5]  
 
 e|---------------------------------|
 B|---------------------------------|
 G|-9---9---9-9-9-9-8--8-8-6---6--6-|
 D|-x---x---x-x-x-x-x--x-x-x---x--x-|
 A|-7---7---7-7-7-7-6--6-6-4---4--4-|
 E|---------------------------------|

Rhythm Guitar fill 1:
[C#5]  
 
 e|---------------------------------|
 B|---------------------------------|
 G|-6---6---6-6-6-6-6--6-6-6---6--6-|
 D|-6---6---6-6-6-6-6--6-6-6---6--6-|
 A|-4---4---4-4-4-4-4--4-4-4---4--4-|
 E|---------------------------------|

Lead guitar:
[G#5] [F#5] [B5]  
 
 e|----------------------------------------|
 B|----------------------------------------|
 G|-13--13--13-13-13-13-11--11-11-16--16-16|
 D|-x---x---x--x--x--x--x---x--x--x---x--x-|
 A|-11--11--11-11-11-11-9---9--9--14--14-14|
 E|----------------------------------------|

Rhythm Guitar fill 1:
[B5]  
 
 e|---------------------------------|
 B|---------------------------------|
 G|-4---4---4-4-4-4-4--4-4-4---4--4-|
 D|-4---4---4-4-4-4-4--4-4-4---4--4-|
 A|-2---2---2-2-2-2-2--2-2-2---2--2-|
 E|---------------------------------| 

Lead Guitar fill 1:
[A5] [F#5] [E5] [F#5]  
 
 e|---------------------------------|
 B|---------------------------------|
 G|-12--12-12-11--11-11-9---9-9-11--|
 D|-x---x--x--x---x--x--x---x-x-x---|
 A|-10--10-10-9---9--9--7---7-7-9---|
 E|---------------------------------|

Rhythm Guitar fill 1:
[A5]  
 
 e|---------------------------------|
 B|---------------------------------|
 G|-4---4---4-4-4-4-4--4-4-4---4--4-|
 D|-4---4---4-4-4-4-4--4-4-4---4--4-|
 A|-2---2---2-2-2-2-2--2-2-2---2--2-|
 E|---------------------------------| 

Resolving chorus/refrain:
When it comes to you X2
Play Rhythm and Lead Fill 1:

Important: The song above is NOT stored on the Chordie server. The original song is hosted at www.guitaretab.com. Chordie works as a search engine and provides on-the-fly formatting. Chordie does not index songs against artists'/composers' will. To remove this song please click here.

Text color:
Chord color:
Chord grids: 
Font size:    
Page size: 

A5 B5 C#5 C#m D#5 E5 F#5 G#5
Rate #1 of 6 versions

Login - add to songbook

SHARE PAGE  




You need to log in to post comments