Guitar Tabs, Chords and Lyrics
Server problems seems to be fixed. Chordie has been experiencing problems with songs disappearing. These issues now seems to be fixed, but still verifying the fix. If you find anything strange, please email admin@chordie.com.


Best of Times  MxPx

 
 -----------------------------------------------------------------------------

Best of Times - MXPX
 
 -----------------------------------------------------------------------------

Tabbed by:Nofxmike
E-mail:N/A
Album: Plans Within Plans (2012)
Track: No.6
Chords used: D5, F#5, G5, A5, C#5, Em, A7, Bm, A,Gm7, G
Tuning:EADgbe
Intro:
Lead Fill 1a:
[D5] [F#5] [G5]  
 
 e|---------------------------------------|
 B|---------------------------------------|
 G|--7-7-7-7-7-7-7-7-11-11-11-11-11-11-12-|
 D|--x-x-x-x-x-x-x-x-x--x--x--x--x--x--x--|
 A|--5-5-5-5-5-5-5-5-9--9--9--9--9--9--10-|
 E|---------------------------------------|

Verses:
Do you re-
[G5]  
 
 e|--------------------------------|
 B|--------------------------------|
 G|--------------------------------|
 D|--5---5--5-5-5---5---5--5-5-5---|
 A|--5---5--5-5-5---5---5--5-5-5---|
 E|--3---3--3-3-3---3---3--3-3-3---|

PM throughout
1)member? Do you re-
[G5]  
 
 e|--------------------------------|
 B|--------------------------------|
 G|--------------------------------|
 D|--5---5--5-5-5---5---5--5-5-5---|
 A|--5---5--5-5-5---5---5--5-5-5---|
 E|--3---3--3-3-3---3---3--3-3-3---|

PM throughout
1)member
[A5]  
 
 e|--------------------------------|
 B|--------------------------------|
 G|--------------------------------|
 D|--7---7--7-7-7---7---7--7-7-7---|
 A|--7---7--7-7-7---7---7--7-7-7---|
 E|--5---5--5-5-5---5---5--5-5-5---|

PM throughout
1)golden leaves in No-
2)silverdale in De-
3)The summer sky in
4)The summer's fly-
[A5]  
 
 e|--------------------------------|
 B|--------------------------------|
 G|--------------------------------|
 D|--7---7--7-7-7---7---7--7-7-7---|
 A|--7---7--7-7-7---7---7--7-7-7---|
 E|--5---5--5-5-5---5---5--5-5-5---|

PM throughout
1)vember?
3)July?
Lead Fill 1a:
[D5] [F#5] [G5]  
 
 e|---------------------------------------|
 B|---------------------------------------|
 G|--7-7-7-7-7-7-7-7-11-11-11-11-11-11-12-|
 D|--x-x-x-x-x-x-x-x-x--x--x--x--x--x--x--|
 A|--5-5-5-5-5-5-5-5-9--9--9--9--9--9--10-|
 E|---------------------------------------|

SECOND TIME ONLY:
2)cember?
4)ing by?
Lead Fill 1b:
[D5] [F#5]  
 
 e|-----------------------------------|
 B|-----------------------------------|
 G|--7-7-7-7-7-7-7-7-11-11-11-11-11-11|
 D|--x-x-x-x-x-x-x-x-x--x--x--x--x--x-|
 A|--5-5-5-5-5-5-5-5-9--9--9--9--9--9-|
 E|-----------------------------------|

Prechorus:
1)All that snow
2)No summer job
[D5]  
 
 e|--------------------------------|
 B|--------------------------------|
 G|--7-----7-7---7-7-7-7-----7-7-7-|
 D|--x-----x-x---x-x-x-x-----x-x-x-|
 A|--5-----5-5---5-5-5-5-----5-5-5-|
 E|--------------------------------|

1)with no place to go
2)no transportation
Lead Fill 2:
[D5] [C#5] [D5]  
 
 e|--------------------------------|
 B|--------------------------------|
 G|--7-----7-7---6-6-6-7-----7-7---|
 D|--x-----x-x---x-x-x-x-----x-x---|
 A|--5-----5-5---4-4-4-5-----5-5---|
 E|--------------------------------|

(no vocals)
Lead Fill 3:
[D5] [E5] [D5]  
 
 e|--------------------------------|
 B|--------------------------------|
 G|-7---7/9--9---7-7---7---7-7---7-|
 D|-x---x-x--x---x-x---x---x-x---x-|
 A|-5---5/7--7---5-5---5---5-5---5-|
 E|--------------------------------|

1)Can't make practice,Can't go to a
2)Crashing parties, no invita-
[D5] [F#5]  
 
 e|-----------------------------------|
 B|-----------------------------------|
 G|--7-----7-7---7-7-7-7---7--11-11-11|
 D|--x-----x-x---x-x-x-x---x--x--x--x-|
 A|--5-----5-5---5-5-5-5---5--9--9--9-|
 E|-----------------------------------|

1)show
2)tion
[E5] [G5]  
 
 e|--------------------------------|
 B|--------------------------------|
 G|--9-----------------------12-12-|
 D|--x-----------------------x--x--|
 A|--7-----------------------10-10-|
 E|--------------------------------|

^ ^
NOTE: for second time: PM and "stab" each octave
1)The world has changed out-
2)Hitching rides and going nowhere
[F#5]  
 
 e|-------------------------------------|
 B|-------------------------------------|
 G|--11----11-11---11-11-11-11-----11---|
 D|--x-----x--x----x--x--x--x------x----|
 A|--9-----9--9----9--9--9--9------9----|
 E|-------------------------------------|

1)side my win- dow
2)go- ing no- where
Lead Fill 4:
[E5] [D5]  
 
 e|----------------------------------|
 B|----------------------------------|
 G|--11----9-----9--------7-----7-7--|
 D|--x-----x-----x--------x-----x-x--|
 A|--9-----7-----7--------5-----5-5--|
 E|----------------------------------|

(No vocals)
[C#5] [D5]  
 
 e|-----------------|
 B|-----------------|
 G|---6-6-6-7-----7-|
 D|---x-x-x-x-----x-|
 A|---4-4-4-5-----5-|
 E|-----------------|

1)What will it be, where did we
2)Sneaking in- to the county
[D5] [F#5]  
 
 e|-----------------------------------|
 B|-----------------------------------|
 G|--7-----7-7---7-7-7-7---7--11-11-11|
 D|--x-----x-x---x-x-x-x---x--x--x--x-|
 A|--5-----5-5---5-5-5-5---5--9--9--9-|
 E|-----------------------------------|

1)go?
2)fair
[E5]  
 
 e|-----------------------------------|
 B|-----------------------------------|
 G|--9-----9-9---9-9-9-9---9-9---9-9-9|
 D|--x-----x-x---x-x-x-x---x-x---x-x-x|
 A|--7-----7-7---7-7-7-7---7-7---7-7-7|
 E|-----------------------------------|

Chorus/Refrain:
1)I sat there in silence
[Em] [A7]  
 
 e|--0----------------------3------|
 B|--0----------------------2------|
 G|--0----------------------0------|
 D|--2----------------------2------|
 A|--2----------------------0------|
 E|--0-----------------------------|

1)All those memories crossed my mind I
[Bm] [A] [Gm7]  
 
 e|---------------------|------------------------|
 B|--3--------------2---|------------------------|
 G|--4--------------2---|-------3----------------|
 D|--4--------------2---|-------3---------X-X----|
 A|--2--------------0---|-------5---------X-X----|
 E|---------------------|-------3---------X-X----|

love life now but thosewerethe"Bestof
[G] [A] [G] [A]  
 
 e|--3------------------|-------3-----------------|
 B|--0--------------2---|-------0-----------2-----|
 G|--0--------------2---|-------0-----------2-----|
 D|--0--------------2---|-------0-----------2-----|
 A|--2--------------0---|-------2-----------0-----|
 E|--3------------------|-------3-----------------|

1)Times"
Lead Fill 1a:
[D5] [F#5] [G5]  
 
 e|---------------------------------------|
 B|---------------------------------------|
 G|--7-7-7-7-7-7-7-7-11-11-11-11-11-11-12-|
 D|--x-x-x-x-x-x-x-x-x--x--x--x--x--x--x--|
 A|--5-5-5-5-5-5-5-5-9--9--9--9--9--9--10-|
 E|---------------------------------------|Go to verse#3

Play Chorus/Refrain(Repeat x1)
The end of the chorus/refrain is played like this
1)Times I'm looking
[D5] [C#5]  
 
 e|---------------------------------------|
 B|---------------------------------------|
 G|--7-7-7-7-7-7-7-7-6--------------------|
 D|--x-x-x-x-x-x-x-x-x--------------------|
 A|--5-5-5-5-5-5-5-5-4--------------------|
 E|---------------------------------------|

Bridge:
1)forward to better
Rhythm guitar:
[D5]  
 
 e|-------------------------------------------------|
 B|-------------------------------------------------|
 G|-7------------------------7--7-------------------|
 D|-7------------------------7--7-------------------|
 A|-5------------------------5--5-------------------|
 E|-------------------------------------------------|

^ ^ ^
Lead guitar:
D(implied tonality)
 
 e|-------------------------------------------------|
 B|-------------------------------------------------|
 G|-------------------------------------------------|
 D|----4-----5--4-----4------------4-----5--4-----4-|
 A|-5-----5--------5---------5--5-----5--------5----|
 E|-------------------------------------------------|

Heavy PM Throughout
1)days In modern
Rhythm Guitar:
[C#5]  
 
 e|-------------------------------------------------|
 B|-------------------------------------------------|
 G|-6------------------------6--6-------------------|
 D|-6------------------------6--6-------------------|
 A|-4------------------------4--4-------------------|
 E|-------------------------------------------------|

^ ^ ^
Lead Guitar:
F#5(implied tonality)
 
 e|-------------------------------------------------|
 B|-------------------------------------------------|
 G|----6-----7--6-----6------------6-----7--6-----6-|
 D|-4-----4--------4---------4--4-----4--------4----|
 A|-------------------------------------------------|
 E|-------------------------------------------------|

Heavy PM Throughout
1)times with a whole new
[D5]  
 
 e|-------------------------------------------------|
 B|-------------------------------------------------|
 G|-7------------------------7--7-------------------|
 D|-7------------------------7--7-------------------|
 A|-5------------------------5--5-------------------|
 E|-------------------------------------------------|

^ ^ ^
Lead Guitar:
[Dsus4(add9)]  
 
 e|----------------------------------------------------|
 B|----------------7---------------------------7-------|
 G|----7-----7--------7---7--------7-----7--------7---7|
 D|-5-----5-----5-------5----5--5-----5-----5-------5--|
 A|----------------------------------------------------|
 E|----------------------------------------------------|

Heavy PM Throughout
face 2)Cause we're growing
[E5]  
 
 e|----------------------------------------------------|
 B|----------------------------------------------------|
 G|-9------------------------9--9----------------------|
 D|-9------------------------9--9----------------------|
 A|-7------------------------7--7----------------------|
 E|----------------------------------------------------|

^ ^ ^
Lead Guitar:
Dmaj7(implied tonality)
 
 e|----------------------------------------------------|
 B|----------------------------------------------------|
 G|----6-----6-----7--6----6-------6-----6-----7--6---6|
 D|-6-----6-----6--------6---6--6-----6-----6-------6--|
 A|----------------------------------------------------|
 E|----------------------------------------------------|

Heavy PM Throughout
Bridge#2:
2) up and all that it
Rhythm Guitar:
[D5]  
 
 e|---------------------------------------------|
 B|---------------------------------------------|
 G|--7-7-7-7-7-7-7-7-7-7-7-7-7-7-7-7-7-7-7-7-7-7|
 D|--x-x-x-x-x-x-x-x-x-x-x-x-x-x-x-x-x-x-x-x-x-x|
 A|--5-5-5-5-5-5-5-5-5-5-5-5-5-5-5-5-5-5-5-5-5-5|
 E|---------------------------------------------|

Lead guitar:
[D5] [F#5] [E5]  
 
 e|---------------------------------------------|
 B|---------------------------------------------|
 G|--7---------------------11----------9--------|
 D|--x---------------------x-----------x--------|
 A|--5---------------------9-----------7--------|
 E|---------------------------------------------|

2)takes Is looking forward
Rhythm guitar:
[C#5]  
 
 e|----------------------------------------------|
 B|----------------------------------------------|
 G|--6-6-6-6-6-6-6-6-6-6-6-6-6-6-6-6-6-6-6-6-6-6-|
 D|--x-x-x-x-x-x-x-x-x-x-x-x-x-x-x-x-x-x-x-x-x-x-|
 A|--4-4-4-4-4-4-4-4-4-4-4-4-4-4-4-4-4-4-4-4-4-4-|
 E|----------------------------------------------|

Lead Guitar:
[C#5] [F#5] [E5]  
 
 e|----------------------------------------------|
 B|----------------------------------------------|
 G|--6---------------------11----------9---------|
 D|--x---------------------x-----------x---------|
 A|--4---------------------9-----------7---------|
 E|----------------------------------------------|

2)to better days
Rhythm Guitar:
[D5]  
 
 e|---------------------------------------------|
 B|---------------------------------------------|
 G|--7-7-7-7-7-7-7-7-7-7-7-7-7-7-7-7-7-7-7-7-7-7|
 D|--x-x-x-x-x-x-x-x-x-x-x-x-x-x-x-x-x-x-x-x-x-x|
 A|--5-5-5-5-5-5-5-5-5-5-5-5-5-5-5-5-5-5-5-5-5-5|
 E|---------------------------------------------|

Lead guitar:
[D5] [C#5] [D5]  
 
 e|---------------------------------------------|
 B|---------------------------------------------|
 G|--7---------------------6-----------7--------|
 D|--x---------------------x-----------x--------|
 A|--5---------------------4-----------5--------|
 E|---------------------------------------------| 

3)cuz I'm looking forward
Rhythm Guitar:
[E5]  
 
 e|---------------------------------------------|
 B|---------------------------------------------|
 G|--9-9-9-9-9-9-9-9-9-9-9-9-9-9-9-9-9-9-9-9-9-9|
 D|--x-x-x-x-x-x-x-x-x-x-x-x-x-x-x-x-x-x-x-x-x-x|
 A|--7-7-7-7-7-7-7-7-7-7-7-7-7-7-7-7-7-7-7-7-7-7|
 E|---------------------------------------------|

Lead guitar:
[E5] [F#5] [G5]  
 
 e|---------------------------------------------|
 B|---------------------------------------------|
 G|--9---------------------11----------12-------|
 D|--x---------------------x-----------x--------|
 A|--7---------------------9-----------10-------|
 E|---------------------------------------------|Repeat Bridge#2 x2

Repeat Chorus/Refrain x2
End chorus like this:
2)times"
[D5]  
 
 e|---------------------------------------|
 B|---------------------------------------|
 G|--7-7-7-7-7-7-7-7-7\-------------------|
 D|--x-x-x-x-x-x-x-x-7--------------------|
 A|--5-5-5-5-5-5-5-5-5\-------------------|
 E|---------------------------------------| 

************************************
| ^ accent/stab this chord
| / slide up
| \ slide down
| h hammer-on
| p pull-off
| ~ vibrato
| + harmonic
| x Mute note
| b Bend
| pb Pre-bend
| br Bend release
| pbr Pre-bend release
| brb Bend release bend
************************************

Important: The song above is NOT stored on the Chordie server. The original song is hosted at www.guitaretab.com. Chordie works as a search engine and provides on-the-fly formatting. Chordie does not index songs against artists'/composers' will. To remove this song please click here.

Text color:
Chord color:
Chord grids: 
Font size:    
Page size: 

A A5 A7 Bm C#5 D5 E5 Em F#5 G G5 Gm7
Rate #1 of 4 versions

Jango Player

Login - add to songbook

SHARE PAGE  



You need to log in to post comments