Guitar Tabs, Chords and Lyrics
Server problems seems to be fixed. Chordie has been experiencing problems with songs disappearing. These issues now seems to be fixed, but still verifying the fix. If you find anything strange, please email admin@chordie.com.


Sorry So Sorry  MxPx

 
 -----------------------------------------------------------------------------

Sorry So Sorry - MXPX
 
 -----------------------------------------------------------------------------

Tabbed by:Nofxmike
Album: Life in General(1996)
Chords Used: E5, A5, B5, C#m, A,B,E
E-mail:
Tuning:EADgbe
Intro:
[E5] [A5] [E5]  
 
 e|---------------------------|-----------|
 B|---------------------------|-----------|
 G|-9--9--9-9-9-9--9-9--9-9-9-|--------9X-|
 D|-9--9--9-9-9-9--9-9--9-9-9-|--7-7-7-9X-|
 A|-7--7--7-7-7-7--7-7--7-7-7-|--7-7-7-7X-|
 E|------------------Repeat-x1|--5-5-5----|

^
(Full Band)
Verses:
1)Should have stayed in bed
2)I gave it a lit- tle
3)I won't let the sun
[E5]  
 
 e|--------------------------------|
 B|--------------------------------|
 G|--9--9-9--9--9-9--9--9-9--9--9-9|
 D|--9--9-9--9--9-9--9--9-9--9--9-9|
 A|--7--7-7--7--7-7--7--7-7--7--7-7|
 E|--------------------------------|

1)today
2)time
3)down
[A5]  
 
 e|--------------------------------|
 B|--------------------------------|
 G|--------------------------------|
 D|--7--7-7--7--7-7--7--7-7--7--7-7|
 A|--7--7-7--7--7-7--7--7-7--7--7-7|
 E|--5--5-5--5--5-5--5--5-5--5--5-5|

1)Couldn't think of a positive
2)I thought about it a
3)when I've made a mis-
[E5]  
 
 e|--------------------------------|
 B|--------------------------------|
 G|--9--9-9--9--9-9--9--9-9--9--9-9|
 D|--9--9-9--9--9-9--9--9-9--9--9-9|
 A|--7--7-7--7--7-7--7--7-7--7--7-7|
 E|--------------------------------|

1)thing to
2)while
3)take
[B5]  
 
 e|--------------------------------|
 B|--------------------------------|
 G|--------------------------------|
 D|--9--9-9--9--9-9--9--9-9--9--9-9|
 A|--9--9-9--9--9-9--9--9-9--9--9-9|
 E|--7--7-7--7--7-7--7--7-7--7--7-7|

1)say
[B5]  
 
 e|--------------------------------|
 B|--------------------------------|
 G|--------------------------------|
 D|--9--9-9--9--9-9--9--9-9--9--9-9|
 A|--9--9-9--9--9-9--9--9-9--9--9-9|
 E|--7--7-7--7--7-7--7--7-7--7--7-7|

1)My friends all hate me
2)ask to forgive and for-
3)I'll make right what I've
[A5]  
 
 e|--------------------------------|
 B|--------------------------------|
 G|--------------------------------|
 D|--7--7-7--7--7-7--7--7-7--7--7-7|
 A|--7--7-7--7--7-7--7--7-7--7--7-7|
 E|--5--5-5--5--5-5--5--5-5--5--5-5|

1)now I was selfish and
2)get Crack a joke and
3)wronged and give more than
[E5]  
 
 e|--------------------------------|
 B|--------------------------------|
 G|--9--9-9--9--9-9--9--9-9--9--9-9|
 D|--9--9-9--9--9-9--9--9-9--9--9-9|
 A|--7--7-7--7--7-7--7--7-7--7--7-7|
 E|--------------------------------|

1)rea- lize
2) a smile -ile
3) I take -ay
[B5]  
 
 e|--------------------------------|
 B|--------------------------------|
 G|--------------------------------|
 D|--9--9-9--9--9-9--9--9-9--9--9-9|
 A|--9--9-9--9--9-9--9--9-9--9--9-9|
 E|--7--7-7--7--7-7--7--7-7--7--7-7|

1) now
2)-ile
3)-ake
[B5]  
 
 e|--------------------------------|
 B|--------------------------------|
 G|--------------------------------|
 D|--9--9-9--9--9-9--9--9-9--9--9-9|
 A|--9--9-9--9--9-9--9--9-9--9--9-9|
 E|--7--7-7--7--7-7--7--7-7--7--7-7|

no vocals
[B5]  
 
 e|--------------------------------|
 B|--------------------------------|
 G|--------------------------------|
 D|--9--9-9--9--9-9--9--9-9--9--9-9|
 A|--9--9-9--9--9-9--9--9-9--9--9-9|
 E|--7--7-7--7--7-7--7--7-7--7--7-7|

Chorus/Refrain:
1)It's hard to say you're sorry when you
2)The weight of hurting words We
[A] [B]  
 
 e|---------------------------------------|
 B|---------------------------------------|
 G|-----6---6-6--6-6-6-6--8---8-8--8-8-8-8|
 D|-----7---7-7--7-7-7-7--9---9-9--9-9-9-9|
 A|-----7---7-7--7-7-7-7--9---9-9--9-9-9-9|
 E|-----5---5-5--5-5-5-5--7---7-7--7-7-7-7|

1)know that you were wrong
2)often carry on
[E] [B]  
 
 e|---------------------------------------|
 B|-----9---9-9--9-9-9-9------------------|
 G|-----9---9-9--9-9-9-9--8---8-8--8-8-8-8|
 D|-----9---9-9--9-9-9-9--9---9-9--9-9-9-9|
 A|-----7---7-7--7-7-7-7--9---9-9--9-9-9-9|
 E|-----------------------7---7-7--7-7-7-7|

1)Ah Ah Ah
[B]  
 
 e|--------------------------------|
 B|--------------------------------|
 G|--8--8-8--8--8-8--8--8-8--8--8-8|
 D|--9--9-9--9--9-9--9--9-9--9--9-9|
 A|--9--9-9--9--9-9--9--9-9--9--9-9|
 E|--7--7-7--7--7-7--7--7-7--7--7-7|

1)Ah
[A]  
 
 e|--------------------------------|
 B|--------------------------------|
 G|--6--6-6--6--6-6--6--6-6--6--6-6|
 D|--7--7-7--7--7-7--7--7-7--7--7-7|
 A|--7--7-7--7--7-7--7--7-7--7--7-7|
 E|--5--5-5--5--5-5--5--5-5--5--5-5|

Play intro riff again:
[E5]  
 
 e|---------------------------||
 B|---------------------------||
 G|-9--9--9-9-9-9--9-9--9-9-9-||
 D|-9--9--9-9-9-9--9-9--9-9-9-||
 A|-7--7--7-7-7-7--7-7--7-7-7-||
 E|------------------Repeat-x1||

Bridge:
1) The an-noying things
2) I've learned to
[C#m] [A]  
 
 e|--------------------------------|
 B|--5------5---------2-----2------|
 G|--6------6---------2-----2------|
 D|--6------6-----2-2-2-----2------|
 A|--4------4-----0-0-0-----0------|
 E|--------------------------------|

1)I don't
2)tol-er
[A]  
 
 e|--------------------------------|
 B|--2----------------2-----2------|
 G|--2----------------2-----2------|
 D|--2------------2-2-2-----2------|
 A|--0------------0-0-0-----0------|
 E|--------------------------------|

1) mind so much
2)ate the an-
[A] [A]  
 
 e|--------------------------------|
 B|--2----------------2-----(2)----|
 G|--2----------------2-----(2)----|
 D|--2------------2-2-2-----(2)----|
 A|--0------------0-0-0-----(0)----|
 E|--------------------------------|

1) any more
2)-noying four
[B5]  
 
 e|--------------------------------|
 B|--------------------------------|
 G|--4---4--4--4--4--4--4---4------|
 D|--4---4--4--4--4--4--4---4------|
 A|--2---2--2--2--2--2--2---2------|
 E|--------------------------------|

Play intro riff again
Play verse 3
Play Chorus/refrain again then this:
Outro:
[A] [B]  
 
 e|---------------------------------------|
 B|---------------------------------------|
 G|-----6-----------------8---------------|
 D|-----7-----------------9---------------|
 A|-----7-----------------9---------------|
 E|-----5-----------------7---------------|

^ ^
[E] [B]  
 
 e|---------------------------------------|
 B|-----9---------------------------------|
 G|-----9-----------------8---------------|
 D|-----9-----------------9---------------|
 A|-----7-----------------9---------------|
 E|-----------------------7---------------|Repeat x1

^ ^
E\ A
 
 e|------------------------------------|
 B|------------------------------------|
 G|-----6---6---6-6-6-6-6---6---6-6-6-6|
 D|-----7---7---7-7-7-7-7---7---7-7-7-7|
 A|7\---7---7---7-7-7-7-7---7---7-7-7-7|
 E|-----5---5---5-5-5-5-5---5---5-5-5-5|

[B]  
 
 e|------------------------------------|
 B|------------------------------------|
 G|-----8---8---8-8-8-8-8---8---8-8-8-8|
 D|-----9---9---9-9-9-9-9---9---9-9-9-9|
 A|-----9---9---9-9-9-9-9---9---9-9-9-9|
 E|-----7---7---7-7-7-7-7---7---7-7-7-7|

End on E5
 
 e|-----------------------------------|
 B|-----------------------------------|
 G|--9--------------------------------|
 D|--9--------------------------------|
 A|--7--------------------------------|
 E|--0--------------------------------|

************************************
| ^ accent/stab and silence this chord
| / slide up
| \ slide down
| h hammer-on
| p pull-off
| ~ vibrato
| + harmonic
| x Mute note
| b Bend
| pb Pre-bend
| br Bend release
| pbr Pre-bend release
| brb Bend release bend
************************************

Important: The song above is NOT stored on the Chordie server. The original song is hosted at www.guitaretab.com. Chordie works as a search engine and provides on-the-fly formatting. Chordie does not index songs against artists'/composers' will. To remove this song please click here.

Text color:
Chord color:
Chord grids: 
Font size:    
Page size: 

A A5 B B5 C#m E E5
Rate #1 of 6 versions

Login - add to songbook

SHARE PAGE  



You need to log in to post comments