Guitar Tabs, Chords and Lyrics
Server problems seems to be fixed. Chordie has been experiencing problems with songs disappearing. These issues now seems to be fixed, but still verifying the fix. If you find anything strange, please email admin@chordie.com.


Wrecking Hotel Rooms  MxPx

Cd- Panic
Tabbed by- Alex Paulison
I love this song, great chorus, oh yeah first tab (but dont think that its wrong cuz
my first) rating is appreciated
Intro
 
 B|----------------------------------------------|
 G|----------------------------------------------|
 D|---77744554-44455444-44422444-44422000--------| x2
 A|---55555555-00000000-22222222-xxxxxxxx--------|
 E|------------------------------33333333--------|

Verse Verse Bridge
[D#] [A] [Bm] [G]  
 
 e|---0--0-----0-----------|-----------------------------------------|
 B|---3--2--3--3-----------|-----------------------------------------|
 G|---2--2--4--0-----------|-----------------------------------------|
 D|---0--2--4--0---------- |-----4--4--5--5--2---2---0----0----0-----|
 A|------0--2--2-----------|---00-00-00-00---------------------------|
 E|------------3-----------|---------------00-022-233--333--333--33--|

(Let Ring)
[D#]I wrecked your hotel room[A]
[Bm]I crashed up the car[G]
[D#]Slept in the gutter[A]
[Bm]I'm outside of your door[G]
-Verse Bridge-
Saw you through the key hole
Down on your knees
There's really no reason to call the police
 
 B|----------------------------------------------|
 G|----------------------------------------------|
 D|---77744554-44455444-44422444-44422000---x2---|
 A|---55555555-00000000-22222222-xxxxxxxx--------|
 E|------------------------------33333333--------|

-Chorus-
Do you hold, the phone when you're alone
Imagine that it rings, then hold it to your ear
And wish that I was there, to sing you off to sleep
Be with you in your dreams, for the days I will be gone
I'll be there in your dreams and in this song
(Play chorus again as a transition)
[D#]I know you don't know me[A]
[Bm]'Cause we'[A]ve never met[G]
[D#]I'm not really crazy[A]
[Bm]So do[A]n't get upse[G]t
-Verse Bridge-
I've got all these problems
None with solutions
Been in and out of some nice institutions
-Chorus-
Do you hold, the phone when you're alone
Imagine that it rings, then hold it to your ear
And wish that I was there, to sing you off to sleep
Be with you in your dreams, for the days I will be gone
I'll be there in your dreams and in this song
I?ll be there in your dreams and in this song
Bridge
 
 e|---------------------------|
 B|---------------------------|
 G|---77----------------------|
 D|---77-454----99----77------| x2
 A|---55----757-99-57-77-45---|
 E|-------------77----55------|
 e|---------------------------------------------------------------------|
 B|---------------------------------------------------------------------|
 G|---------------------------------------------------------------------|
 D|---222-444-55555-222-444-55555-222-444-55555-7777777777777777777-----|
 A|---222-444-55555-222-444-55555-222-444-55555-7777777777777777777-----|
 E|---000-222-33333-000-222-33333-000-222-33333-5555555555555555555-----|

Guitar 1 with solo
 
 e|---------------------------------------------------------------------|
 B|--------------------------77--------------------------10----8---7----|
 G|---7-----7h9-7h9-7-----7h9--9p7--7-9-11-12-12h14-12-11--11-9-9-7-9p7-|
 D|----979-9---9-----979-9---------4-7-9--9-----------------------------|
 A|---------------------------------------------------------------------|
 E|---------------------------------------------------------------------|

Guitar 2 Solo ^ 2x ^
-Chorus- (palm muted)
Do you hold, the phone when you're alone
Imagine that it rings, then hold it to your ear
And wish that I was there, to sing you off to sleep
Be with you in your dreams, for the days I will be gone
I'll be there in your dreams and in this song
I?ll be there in your dreams and in this song ? 4x

Important: The song above is NOT stored on the Chordie server. The original song is hosted at www.guitaretab.com. Chordie works as a search engine and provides on-the-fly formatting. Chordie does not index songs against artists'/composers' will. To remove this song please click here.

Text color:
Chord color:
Chord grids: 
Font size:    
Page size: 

A Bm D# G
Rate #1 of 5 versions

Login - add to songbook

SHARE PAGE  



You need to log in to post comments