Guitar Tabs, Chords and Lyrics
Server problems seems to be fixed. Chordie has been experiencing problems with songs disappearing. These issues now seems to be fixed, but still verifying the fix. If you find anything strange, please email admin@chordie.com.


Young and Depressed  MxPx

Panic
Standard tuning
Chord Charts Display Order
[A5] [B5] [D5] [E5]  
 
 e------------------|
 B------------------|
 G--2---4---7---9---|
 D--2---4---7---9---|
 A--0---2---5---7---|
 E------------------|

Intro
Intro Riff - 2x
 
 e-----------------------------------|
 B-----------------------------------|
 G-----------------------------------|
 D-----------------------------------|
 A--4--4-0-0-4-4-0-0-4-4-0-0-4-4-0---|
 E-----------------------------------|

Intro Riff (2)
[A5] [A5] [B5] [B5]  
 
 e-----------------------------------------------------------------|
 B-----------------------------------------------------------------|
 G-----------------------------------------------------------------|
 D-----------------------------------------------------------------|
 A--4--4-0-0-4-4-0-0-4-4-0-0-4-4-0-5--5-0-0-5-5-0-0-5-5-0-0-5-5-0--|
 E-----------------------------------------------------------------|

Intro Riff (2) (cont'd)
[D5] [D5] [D5] [D5]  
 
 e-----------------------------------------------------------------|
 B-----------------------------------------------------------------|
 G-----------------------------------------------------------------|
 D-----------------------------------------------------------------|
 A--7--7-0-0-7-7-0-0-7-7-0-0-7-7-0-7--7-0-0-7-7-0-0-7-7-0-0-7-7-0--|
 E-----------------------------------------------------------------|

[E5]  
 
 e-----------------|
 B-----------------|
 G--9-9-9-9-9-9-9--|
 D--9-9-9-9-9-9-9--|
 A--7-7-7-7-7-7-7--|
 E-----------------|

Main Riff
[A5] [B5]  
 
 e-----------------------------------------------------------------|
 B-----------------------------------------------------------------|
 G-----------------------------------------------------------------|
 D-----------------------------------------------------------------|
 A--4--4-0-0-4-4-0-0-4-4-0-0-4-4-0-5--5-0-0-5-5-0-0-5-5-0-0-5-5-0--|
 E-----------------------------------------------------------------|

[D5] [E5]  
 
 e-------------------------------------|
 B-------------------------------------|
 G---------------------------------9---|
 D---------------------------------9---|
 A--7--7-0-0-7-7-0-0-7-7-0-0-7-7-0-7---|
 E-------------------------------------|

Verse
[A5] [B5] [D5] [E5]  
 
 e------------------|
 B------------------|
 G--2---4---7---9---|
 D--2---4---7---9---|
 A--0---2---5---7---|
 E------------------|

You've got [A5]so many [B5]problems
[D5]No one else thinks [E5]you can solve them
[A5]Where did the [B5]time go
[D5]Everybody [E5]wants to know
[A5]Life goes on [B5]day after [D5]day after [E5]day
[A5]Too much [B5]work and no [D5]play
Pre-Chorus
[F#5] [D5] [A5] [E5] [F5] [F#m5] [D5] [E5] [E5]  
 
 e------------------------------------------------|
 B----------------------------10------------------|
 G-------7---------9----10----11----7----9--------|
 D--4----7----7----9----10----11----7----9----2---|
 A--4----5----7----7-----8-----9----5----7----2---|
 E--2---------5-------------------------------0---|

[F#5]When life seems [D5]like it cant get [A5]harder
When [E5]you feel [F5]like a martyr[F#m5]
When [D5]you've lost all contro[E5]l
[E5]That's when you've let the whole world know
Chorus
[A5] [B5] [D5] [F#5] [E5] [B5] [C#5] [D5] [E5]  
 
 e--------------------------------------|
 B--------------------------------------|
 G--2---4---7-----------4---6---7---9---|
 D--2---4---7---4---2---4---6---7---9---|
 A--0---2---5---4---2---2---4---5---7---|
 E--------------2---0-------------------|

You're [A5]young and de[B5]pressed
With no [D5]future in this loneliness
You're [F#5]young and de[E5]pressed
But you're [B5]pretty well [C#5]dressed
Yeah you're [D5]pretty well [E5]dressed
Verse 2
I know [A5]that you've been hurting
So much has led up to this
Your eyes are burning
Hard times make the heart resist
[A5]All that you [B5]want is to [D5]follow your [E5]dreams
[A5]They all fall a[B5]part at the [D5]seams
Pre-chorus
Chorus
You're [A5]young and de[B5]pressed
With no [D5]future in this loneliness
You're [F#5]young and de[E5]pressed
But you're [B5]pretty well [C#5]dressed
Yeah you're [D5]pretty well...
Bridge Riff
Guitar 1
 
 e------------------------------------------------------------------------------------|
 B------------------------------------------------------------------------------------|
 G------6-----6-------6-----6-------6-----6-------4-----4-------2------------2-----2--|
 D--4-4---4-4---4-3-3---3-3---3-2-2---2-2---2-1-1---1-1---1-0-0---0-0--0-0-0---0-0----|
 A------------------------------------------------------------------------------------|
 E------------------------------------------------------------------------------------|

Guitar 2
 
 e------------------------------------------------------------------------------------|
 B------------------------------------------------------------------------------------|
 G----------------1-------------2-------------4-------------7-----------------------|
 D--4---------------------------------------------------------------------------------|
 A------------------------------------------------------------------------------------|
 E------------------------------------------------------------------------------------|

Discontentment turns to anger turning sour every lonely hour
[F5] [A5] [E5] [F5]  
 
 e------------------------|
 B------------------------|
 G--------2----9----10----|
 D---3----2----9----10----|
 A---3----0----7-----8----|
 E---1--------------------|

[F5]Yeah de[A5]pression[E5] [F5]
Repeat bridge riff
Failed relations turn over a new leaf will it be a four leaf [A5]clover?
[F5]Yeah ob[A5]session [F5]yeah de[A5]pression [F5]yeah
Chorus (w/ stops)
Chorus (w/ main riff)
You're [A5]young and de[B5]pressed
With no [D5]future in this loneliness
You're [F#5]young and de[E5]pressed
But you're [B5]pretty well [C#5]dressed
Yeah you're [D5]pretty well [E5]dressed
No [B5]future [C#5]in this [D5]loneli[E5]ness
You're [B5]pretty well [C#5]dressed
Yeah you're [D5]pretty well...

Important: The song above is NOT stored on the Chordie server. The original song is hosted at www.guitaretab.com. Chordie works as a search engine and provides on-the-fly formatting. Chordie does not index songs against artists'/composers' will. To remove this song please click here.

Text color:
Chord color:
Chord grids: 
Font size:    
Page size: 

A5 B5 C#5 D5 E5 F#5 F5
Rate #2 of 4 versions

Login - add to songbook

SHARE PAGE  




You need to log in to post comments