Guitar Tabs, Chords and Lyrics
Major upgrade!! After one year development the new version of Chordie is now online! Please give feedback.


Broken Down Angel  Nazareth

Intro: E A E B E
[E]H E E Q
 
 E||------------------------|
 B||----------------7--9----|
 G||--9br--------9----------|
 D||------------------------|
 A||------------------------|
 E||------------------------|

[A]Q. E E E Q [E]Q. E E E E E
 
 --------------9--7--------|--7br----7--------------|
 --10br----10--------10----|------------9--7-----9--|
 --------------------------|------------------9-----|
 --------------------------|------------------------|
 --------------------------|------------------------|
 --------------------------|------------------------|

[B]Q. E Q Q [E]Q. E Q Q [D]Q
 
 ----------------------|---------------------|------|
 --7br----7--9----7----|---------------------|------|
 ----------------------|--9--------9----9----|--7---|
 ----------------------|-----------9----9----|--7---|
 ----------------------|---------------------|------|
 ----------------------|---------------------|------|

She used
Verse 1:
She [D]used to be some[D]one you could de[E]pend on[E]
To [D]brighten up your [A]coldest winter [E]day[E]
But the [B]one she leaned [B]upon
Let her [E]down ? now has moved [A]on
And [E]morning brings her a[B]nother empty [E]day[E]
Chorus:
Now she?s [A]only a [B]broken down [E]angel[E]
She?s [A]only a [B]bird that?s broke her [E]wing[E]
She?s [C#m]only some[G#]one, some[A]one who?s gone [B]wrong
A B (E ? instrumental)
She?s only a child that?s lost her way
Instrumental (repeat intro): E A E B E
Verse 2:
She [D]used to be a [D]girl of simple plea[E]sures[E]
A [D]breath of spring to [A]chase your blues a[E]way[E]
But [B]now she bears a [B]cross
For a [E]love that she has [A]lost
No [E]sunshine in her [B]life ? just clouds of [E]gray[E]
Repeat chorus:
Now she?s [A]only a [B]broken down [E]angel[E]
She?s [A]only a [B]bird that?s broke her [E]wing[E]
She?s [C#m]only some[G#]one, some[A]one who?s gone [B]wrong
She?s [A]only a [B]child that?s lost her [E]way[E]
Instrumental:
 
 | F# - - - | C# - - - | F# - - - | B - - - |
 | F# - - - | C# - - - | F# - - - | F# - - - | E - |

Repeat chorus:
She?s [A]only a [B]broken down [E]angel[E]
She?s [A]only a [B]bird that?s broke her [E]wing[E]
She?s [C#m]only some[G#]one, some[A]one who?s gone [B]wrong
She?s [A]only a [B]child that?s lost her [E]way[E]
Repeat chorus (until fade):
Now she?s [A]only a [B]broken down [E]angel[E]
She?s [A]only a [B]bird that?s broke her [E]wing[E]
She?s [C#m]only some[G#]one, some[A]one who?s gone [B]wrong
She?s [A]only a [B]child that?s lost her [E]way[E]

Important: The song above is NOT stored on the Chordie server. The original song is hosted at www.guitaretab.com. Chordie works as a search engine and provides on-the-fly formatting. Chordie does not index songs against artists'/composers' will. To remove this song please click here.

Text color:
Chord color:
Chord grids: 
Font size:    
Page size: 

A B C#m D E G#
Rate #1 of 7 versions

Login - add to songbook

SHARE PAGE  




You need to log in to post comments