Guitar Tabs, Chords and Lyrics
Major upgrade!! After one year development the new version of Chordie is now online! Please give feedback.


Dream Date  Neil Finn

NOTES:
-- Since the song opens with only bass, i've transcribed Sebastian
Steinberg's bass part for guitar.
-- Just for fun, I transcribed the "vibes" solo for guitar.
* UNUSUAL CHORDS
D2 XX0230
A/C# X42220
BASS INTRO:
 
 ---|--------------------------|--------------------------||
 ---|--------------------------|--------------------------||
 ---|--------------------------|--------------------------|| Repeat w/
 ---|--------------------------|--------------------------|| variation
 -2-|----4--2---0---0-----2--2-|----4--2----0--0-----0----||
 ---|-0------------------------|-0----------------2-----2-||

VERSE:
Remove yourself from the past
wherever you are you don't have to stay
old and wise lion's eyes
I wish you were here to give me advice
CHORUS:
D2* A/C#* C E
Lightweight dream date
[D2]fly or [A/C#]fall it's [C]my [E]call
VERSE:
[E]In the [A]club, [E]halfway [A]up
[E]whisky at[A] five, [E]a weekend re[A]treat
[E]brave and [A]young, the [E]bells have [A]rung
[E]they're playing th[A]e tune, [E]I'm tapping my [A]feet
CHORUS:
lightweight dream date
fly or fall it's my call
lightweight dream date
fly or fall it's my call
INSTRUMENTAL BREAK:
[Gm] [Am] [Em] [Am]  
SOLO:
 
 -----------6--8-|---7----------|--------------------|----7--12--14--12--||
 --------8-------|-----------10-|-10-----8--10--8--7-|-7-----------------||
 --6--9----------|--------------|--------------------|-------------------||
 ----------------|--------------|--------------------|-------------------||
 ----------------|--------------|--------------------|-------------------||
 ----------------|--------------|--------------------|-------------------||

VERSE:
Friend or foe, it's hard to know
I wish you were here to give me advice
CHORUS:
lightweight dream date
fly or fall it's my call
lightweight dream date
fly or fall it's my call
RIDE OUT: E A
(c) 1997 by Roundhead Music, administered by Wixen Music Publishing (BMI)
(Transcription by Marck Bailey)

Important: The song above is NOT stored on the Chordie server. The original song is hosted at www.guitaretab.com. Chordie works as a search engine and provides on-the-fly formatting. Chordie does not index songs against artists'/composers' will. To remove this song please click here.

Text color:
Chord color:
Chord grids: 
Font size:    
Page size: 

A A/C# Am C D2 E Em Gm
Rate #2 of 3 versions

Jango Player

Login - add to songbook

SHARE PAGE  




You need to log in to post comments