Guitar Tabs, Chords and Lyrics
Server problems seems to be fixed. Chordie has been experiencing problems with songs disappearing. These issues now seems to be fixed, but still verifying the fix. If you find anything strange, please email admin@chordie.com.


Devil's Sidewalk  Neil Young

Devil's Sidewalk
Greendale
by d.Ferraro
double drop D tuning
[A] [B] [C] [D] [E]  
 
 d|---------------|-----------|---------------|---------|-------------|
 b|---------------|-----------|---------------|---------|-------------|
 g|-----0---------|-0---------|-----0-2-0-----|---------|-0-0---------|
 d|-0-3---3-0---0-|---3-0---0-|-0-3-------3-0-|-3-0---0-|-----3-0---0-|
 a|-----------3---|-------3---|---------------|-----3---|---------3---|
 D|---------------|-----------|---------------|---------|-------------|

This is the order he plays them in before the lyrics come in:
A,B,C,D,C,B,C,B
In between each set, and each line of lyrics play these chords:
d f g?
 
 d|-0--0--0---|
 b|-3--1--3---|
 g|-2--2--4---|
 d|-0--3--5---|
 a|-----------|
 D|-----------|

Well the red light shines
On the streets of hate
Where the devil dines
Who knows what he ate
"It's a simple thing
Trying to stay afloat"
The captain said
Without his boat
Some things are getting better
Other things a little worse
It's a situation
Much like a curse
A,E,C,B
"It's the devil's sidewalk
It's the devil's door
I've tried to avoid it"
Said the captain of the shore
There's a garden growing
And a million weeds
With no way of knowing
Who's done which deed
[A]  
"That's an honest tale"
Said the helmsman to the mate
"About a woman delicious
And a matter of fate"
 
 d|---3-5b6-3-----|---------------|---3-5b6-3---|-----------|
 b|-3---------3-3-|---------------|-3---------3-|-----------|
 g|---------------|-0---0---------|-------------|-0---0-----|
 d|---------------|---3---3-0-3-0-|-------------|---3---3-0-|
 a|---------------|---------------|-------------|-----------|
 D|---------------|---------------|-------------|-----------|

Big wheel keep rollin'
Down on me
"One thing I can tell you
Is you got to be free"
John Lennon said that
And "I believe in love"
But I believe in action
When push comes to shove
[A]  
"Who cares what you believe,"
Said the captain, amazed
"If you stood in my shoes
Your eyes would be glazed"
 
 d|-5b6-3---|---3----------|---3-5-3-5b6-|-0h2b-2b---|
 b|-------3-|-3---3-3-3-3b-|-3-----------|---------3-|
 g|---------|--------------|-------------|-----------|
 d|---------|--------------|-------------|-----------|
 a|---------|--------------|-------------|-----------|
 D|---------|--------------|-------------|-----------|

So, my fair damsel
Won't you take your leave
Are you headed for the country?
Where you wear the greensleeves
And the children laugh
And the old folks sing
And the church bell tolls
For a miraculous thing
Where the big red furnace
Just blooms and glows
Where the big heart beats
Where the big wheel rolls
(harmonica enters)
 
 d|---3-5-3-----|-------------|---3-5-3-5b6---|-----------|---3-5b6-3---|
 b|-3-------3-3-|-------------|-3-----------3-|-----------|-3---------3-|
 g|-------------|-0-0-2-0-----|---------------|-0---------|-------------|
 d|-------------|---------3-0-|---------------|---3-0-3-0-|-------------|
 a|-------------|-------------|---------------|-----------|-------------|
 D|-------------|-------------|---------------|-----------|-------------|
 d|-------------|---3-5b6-3---|-----------|---------|-----------|-----------|
 b|-------------|-3---------3-|-----------|---------|-----------|-----------|
 g|-0-0-2-0-----|-------------|-0---0-----|---------|-----------|-0---0-2-2-|
 d|---------3-0-|-------------|---3---3-0-|-0-0-0-0-|-0-3-0-0-0-|---3-------|
 a|-------------|-------------|-----------|---------|-----------|-----------|
 D|-------------|-------------|-----------|---------|-----------|-----------|
 d|---------------|---
 b|---------------|---
 g|-----0---------|-2-
 d|-0-3---3-0-0-0-|-0-
 a|---------------|-0-
 D|---------------|---


Important: The song above is NOT stored on the Chordie server. The original song is hosted at www.guitaretab.com. Chordie works as a search engine and provides on-the-fly formatting. Chordie does not index songs against artists'/composers' will. To remove this song please click here.

Text color:
Chord color:
Chord grids: 
Font size:    
Page size: 

A B C D E
Rate #1 of 1 versions

Login - add to songbook

SHARE PAGE  



You need to log in to post comments