Guitar Tabs, Chords and Lyrics
Major upgrade!! After one year development the new version of Chordie is now online! Please give feedback.


Hey Hey, My My (Into the Black)  Neil Young

Hey, Hey, My, My
Neil Young
Tabbed By: Rock_And_Blues
Intro/Main Riff
(electric guitar w/ distortion)
 
 E|-----|--------------------------|--1--1--1--|--1--1--1--|
 B|-----|--------------------------|--1--1--1--|--1--1--1--|
 G|-----|--------------------------|--2--2--2--|--2--2--2--|
 D|-----|-----------0--------------|--3--3--3--|--3--3--3--|
 A|--0--|--0--2--3-----2--0-----0--|--0--0--0--|--0--0--0--|
 E|-----|--------------------3-----|-----------|-----------|
 E|-----|--------------------------|--1--1--1--|--1--1--1--|
 B|-----|--------------------------|--1--1--1--|--1--1--1--|
 G|-----|--------------------------|--2--2--2--|--2--2--2--|
 D|-----|-----------0--------------|--3--3--3--|--3--3--3--|
 A|--0--|--0--2--3-----2--0-----0--|--0--0--0--|--0--0--0--|
 E|-----|--------------------3-----|-----------|-----------|
 E|-----|--------------------------|--0--0--0--|--1--1--1--|
 B|-----|--------------------------|--1--1--1--|--1--1--1--|
 G|-----|-----------0--2--0-----0--|--2--2--2--|--2--2--2--|
 D|-----|-----0--2-----------2-----|--2--2--2--|--3--3--3--|
 A|--3--|--3-----------------------|--0--0--0--|--0--0--0--|
 E|-----|--------------------------|--0--0--0--|-----------|
 E|-----|--------------------------|--1--1--1--|--1--1--1--|
 B|-----|--------------------------|--1--1--1--|--1--1--1--|
 G|-----|--------------------------|--2--2--2--|--2--2--2--|
 D|-----|-----------0--------------|--3--3--3--|--3--3--3--|
 A|--0--|--0--2--3-----2--0-----0--|--0--0--0--|--0--0--0--|
 E|-----|--------------------3-----|-----------|-----------|

[Am]Hey, [G]Hey, My, [F]My. (F-F-F-F-F-F) (play the F chord 6 times after these lines)
[Am]Rock N [G]Roll Can Never [F]Die. (F-F-F-F-F-F)
[C]There's More To The [Am]Picture, Than What Meets The [G]Eye.
[Am]Hey, [G]Hey, My, [F]My. (F-F-F-F-F-F)
(Main Riff)
[Am]Out Of The [G]Blue, And Into The [F]Black. (F-F-F-F-F-F)
[Am]You Pay For [G]This, But They Give You [F]That. (F-F-F-F-F-F)
[C]And Once Your [Am]Gone, You Can't Come [G]Back,
[Am]When Your Outta The [G]Blue And Into The [F]Black. (F-F-F-F-F-F)
(Main Riff)
[Am]The King Is G[G]one, But He's Not For[F]gotten. (F-F-F-F-F-F)
[Am]This Is The S[G]tory Of The Johnny R[F]otten. (F-F-F-F-F-F)
[C]It's Better To Burn [Am]Out, Cause Rust Never [G]Sleeps.
[Am]The King Is G[G]one, But He's Not For[F]gotten. (F-F-F-F-F-F)
(Main Riff)
[Am]Hey, [G]Hey, My, [F]My. (F-F-F-F-F-F)
[Am]Rock N [G]Roll Can Never [F]Die. (F-F-F-F-F-F)
[C]There's More To The [Am]Picture, Than Meets The [G]Eye.
(The last line of the verse is replaced with a solo on the recording, but can be played the same way.)
[Am]Hey, [G]Hey, My, [F]My. (F-F-F-F-F-F)
(End with the main riff.)
____________________________________________________________________________
Chords Used In Song:
[F] [Am] [C]  
 
 E|--1--0--0--|
 B|--1--1--1--|
 G|--2--2--0--|
 D|--3--2--2--|
 A|--0--0--3--|
 E|-----0--0--|


Important: The song above is NOT stored on the Chordie server. The original song is hosted at www.guitaretab.com. Chordie works as a search engine and provides on-the-fly formatting. Chordie does not index songs against artists'/composers' will. To remove this song please click here.

Text color:
Chord color:
Chord grids: 
Font size:    
Page size: 

Am C F G
Rate #2 of 2 versions

Login - add to songbook

SHARE PAGE  




You need to log in to post comments

brokenarrow5 (report)

there's more to the picture than meets the eye
should be-- C,G,Am,F
all the verses should have that sequence on that verse line