Guitar Tabs, Chords and Lyrics
Major upgrade!! After one year development the new version of Chordie is now online! Please give feedback.


Avery Island / April 1st   Neutral Milk Hotel

 
 ||-----------|-----------|------------|-------------||
 ||o----------|-----------|------------|------------o||
 ||--5--------|-4----5----|-4----2--0--|-2------4----||
 ||-----------|-----------|------------|-------------||
 ||o----------|-----------|------------|------------o||
 ||-----------|-----------|------------|-------------||
 |----------|-----------|------------|-------------|
 |----------|-----------|------------|-------------|
 |-5--------|-4----5----|-4----2--0--|-2----2-0----|
 |----------|-----------|------------|----------2--|
 |----------|-----------|------------|-------------|
 |----------|-----------|------------|-------------|
 |-----------|--------------|------------|--------------|
 |-----------|--------------|------------|--------------|
 |-----------|--------0-----|------------|------------4-|
 |-0----2----|-(2)------3-2-|-0---2------|--------------|
 |-----------|--------------|---------0--|-(0)----------|
 |-----------|--------------|------------|--------------|
 ||-----------|------------|------------|-------------||
 ||o----------|------------|------------|------------o||
 ||--5--------|-4----5--4--|-4----2--0--|-2------4----||
 ||-----------|------------|------------|-------------||
 ||o----------|------------|------------|------------o||
 ||-----------|------------|------------|-------------||
 |----------|------------|------------|-------------|
 |----------|------------|------------|-------------|
 |-5--------|-4----5--4--|-4----2--0--|-2----2-0----|
 |----------|------------|------------|----------2--|
 |----------|------------|------------|-------------|
 |----------|------------|------------|-------------|
 |-----------|--------------|------------|----------------|
 |-----------|--------------|------------|----------------|
 |-----------|--------0-----|------------|---------2-0----|
 |-0----2----|-(2)------3-2-|-0---2------|-------------2--|
 |-----------|--------------|---------0--|-(0)------------|
 |-----------|--------------|------------|----------------|
 |-----------|--------------|------------|--------------|
 |-----------|--------------|------------|--------3-1---|
 |-----------|--------0-----|---------2--|-(2)--------2-|
 |-0----2----|-(2)------3-2-|-0---2------|--------------|
 |-----------|--------------|------------|--------------|
 |-----------|--------------|------------|--------------|
 |----------|------------|------------|-----|
 |-1--------|-(1)--------|-(1)--------|-----|
 |----------|------------|------------|-----|
 |----------|------------|------------|-----|
 |----------|------------|------------|-----|
 |----------|------------|------------|-----|

 


 


 Gtr I (E A D G) - 'Bass'


 


 Q=112


 [4/4] Gtr I


 11x


 

 
 ||--------------------------|--------------------------||
 ||o----5-----5-----5-----5--|----3-----3-----3-----3--o||
 ||o-3-----3-----3-----3-----|-3-----3-----3-----3-----o||
 ||--------------------------|--------------------------||
 |----------|------------|------------|-----|
 |----------|------------|------------|-----|
 |-3--------|-(3)--------|-(3)--------|-----|
 |----------|------------|------------|-----|

 


 


 Tablature Legend


 

 
 ----------------

 


 h - hammer-on


 p - pull-off


 b - bend


 pb - pre-bend


 r - bend release (if no number after the r, then release immediately)


 /\ - slide into or out of (from/to "nowhere")


 s - legato slide


 S - shift slide


 - natural harmonic


 (n) - artificial harmonic


 n(n) - tapped harmonic


 ~ - vibrato


 tr - trill


 T - tap


 TP - trem. picking


 PM - palm muting


 \n/ - tremolo bar dip; n = amount to dip


 \n - tremolo bar down


 n/ - tremolo bar up


 /n\ - tremolo bar inverted dip


 = - hold bend; also acts as connecting device for hammers/pulls


 - volume swell (louder/softer)


 x - on rhythm slash represents muted slash


 o - on rhythm slash represents single note slash


 


 Misc Legend


 

 
 -----------


Important: The song above is NOT stored on the Chordie server. The original song is hosted at www.guitaretab.com. Chordie works as a search engine and provides on-the-fly formatting. Chordie does not index songs against artists'/composers' will. To remove this song please click here.

This song is displayed as text-only. Transposing and tuning is only available for chordpro-songs.
Rate #1 of 2 versions

Login - add to songbook

SHARE PAGE  




You need to log in to post comments