Guitar Tabs, Chords and Lyrics
Server problems seems to be fixed. Chordie has been experiencing problems with songs disappearing. These issues now seems to be fixed, but still verifying the fix. If you find anything strange, please email admin@chordie.com.


The Learning  Nevermore

As recorded by Nevermore
(From the 1996 Album POLITICS OF ECSTASY)
Transcribed by Russ Elton (webmaster@abysslord.com) & Jordan Baker (sansamppsa1@hotmail.com)
Words by Warrel Dane Music by Nevermore
Arranged by Russ Elton (webmaster@abysslord.com) & Jordan Baker (sansamppsa1@hotmail.com)
Gtr I (Eb Ab Db Gb Bb Eb) - 'Clean Guitar'
Gtr II (Eb Ab Db Gb Bb Eb) - 'Distortion Guitar'
Gtr III (Eb Ab Db Gb Bb Eb) - 'Distortion Guitar'
Gtr IV (Eb Ab Db Gb Bb Eb) - 'Lead Guitar'
Gtr V (Eb Ab Db Gb Bb Eb) - 'Lead Guitar'
Gtr VI (Eb Ab Db Gb Bb Eb) - 'Clean Guitar'
Intro
Q.=65
6[Gm]/8
Gtr I
[E] [E] [E] [E] [E] [E] [E] [E] [E] [E] [E] [E] [E] [E] [E] [E] [E] [E] [E] [E] [E] [E] [E] [E]  
 
 |-------------|-------------|-------------|-------------|
 |-------------|-------------|-------------|-------------|
 |-------0-----|-------0-----|-------0-----|-------0-----|
 |-----0---0---|-----0---0---|-----0---0---|-----0---0---|
 |---1-------1-|---1-------1-|---1-------1-|---1---------|
 |-3-----------|-3-----------|-3-----------|-3---------1-|

[E] [E] [E] [E] [E] [E] [E] [E] [E] [E] [E] [E] [E] [E] [E] [E] [E] [E] [E] [E] [E] [E] [E] [E]  
 
 |-------------|-------------|-------------|----------------|
 |-------------|-------------|-------------|----------------|
 |-------0-----|-------0-----|-------0-----|-------0--------|
 |-----0---0---|-----0---0---|-----0---0---|-----0---0------|
 |---1-------1-|---1-------1-|---1-------1-|---1------------|
 |-3-----------|-3-----------|-3-----------|-3---------3b5r=|

[G]Gtr I[Bb] [D] [G] [D] [Bb] [G] [BbD] [G] [D] [Bb]
[E]| [E]| [E]| [E]| [E]| [E]| [E]| [E]| [E]| [E]| [E]| [E]|
o o o o o o o o o o o o
Gtr IV
E +Q +Q. +Q. Q +E
 
 |-12b13==(12)---(12)-----|-(12)-----12r==(12)-|
 |------------------------|--------------------|
 |------------------------|--------------------|
 |------------------------|--------------------|
 |------------------------|--------------------|
 |------------------------|--------------------|

|
| Gtr II
| E +Q +Q. +Q. Q +E
 
 |------------------------|--------------------|
 |-13b15==(13)---(13)-----|-(13)-----13r==(13)-|
 |------------------------|--------------------|
 |------------------------|--------------------|
 |------------------------|--------------------|
 |------------------------|--------------------|

|
| Gtr III
| E +Q +Q. +Q. Q +E
 
 |------------------------|--------------------|
 |------------------------|--------------------|
 |-14b15==(14)---(14)-----|-(14)-----14r==(14)-|
 |------------------------|--------------------|
 |------------------------|--------------------|
 |------------------------|--------------------|

[G] [BbD] [G] [D] [Bb] [G] [BbD] [G] [D] [F]  
[E]| [E]| [E]| [E]| [E]| [E]| [E]| [E]| [E]| [E]| [E]| [E]|
o o o o o o o o o o o o
~~~~~~~~~~~~~~~~~~~~~~~~~~~~~
H. +Q. +E E +E
 
 |-13------------|-(13)-----(13)-15-(15)b17r=|
 |---------------|---------------------------|
 |---------------|---------------------------|
 |---------------|---------------------------|
 |---------------|---------------------------|
 |---------------|---------------------------|

|
| ~~~~~~~~~~~~~~~~~~~~~~~~~~~~~
| H. +Q. +E E +E
 
 |---------------|---------------------------|
 |-13------------|-(13)-----(13)-15-(15)b18r=|
 |---------------|---------------------------|
 |---------------|---------------------------|
 |---------------|---------------------------|
 |---------------|---------------------------|

|
| ~~~~~~~~~~~~~~~~~~~~~~~~~~~~~
| H. +Q. +E E +E
 
 |---------------|---------------------------|
 |---------------|---------------------------|
 |-14------------|-(14)-----(14)-15-(15)b17r=|
 |---------------|---------------------------|
 |---------------|---------------------------|
 |---------------|---------------------------|

[G] [BbD] [G] [D] [Bb] [G] [BbD] [G] [D] [Bb] [G] [BbD] [G] [D] [Bb] [G] [BbD] [G] [D] [Bb] 
[E]| [E]| [E]| [E]| [E]| [E]| [E]| [E]| [E]| [E]| [E]| [E]| [E]| [E]| [E]| [E]| [E]| [E]| [E]| [E]| [E]| [E]| [E]| [E]|
o o o o o o o o o o o o o o o o o o o o o o o o
>
~~~~~~~~~~~~~~~~~~~ ~~~ ~~~~~~~~~~~~
+H. Q. Q. a H. Q E +E +Q
 
 |-(15)-----------|-13--------------|------------------|----------------------||
 |----------------|---------13------|------------------|----------------------||
 |----------------|-----------------|-14h15------------|-15---12-(12)-(12)----||
 |----------------|-----------------|------------------|----------------------||
 |----------------|-----------------|------------------|----------------------||
 |----------------|-----------------|------------------|----------------------||

|
| >
| ~~~~~~~~~~~~~~~~~~~ ~~~ ~~~~~~~~~~~~
| +H. Q. Q. a H. Q E +E +Q
 
 |----------------|-----------------|------------------|----------------------||
 |-(15)-----------|-13--------------|------------------|----------------------||
 |----------------|---------14------|------------------|----------------------||
 |----------------|-----------------|-14h15------------|-15---12-(12)-(12)----||
 |----------------|-----------------|------------------|----------------------||
 |----------------|-----------------|------------------|----------------------||

|
| >
| ~~~~~~~~~~~~~~~~~~~ ~~~ ~~~~~~~~~~~~
| +H. Q. Q. a H. Q E +E +Q
 
 |----------------|-----------------|------------------|----------------------||
 |----------------|-----------------|------------------|----------------------||
 |-(15)-----------|-14--------------|------------------|----------------------||
 |----------------|---------15------|------------------|----------------------||
 |----------------|-----------------|-16h17------------|-17---13-(13)-(13)----||
 |----------------|-----------------|------------------|----------------------||

Verse
[Gm]Gtrs II, III, IV
< >
~~~~~~~~~~~~~~~~~
E +Q Q. W W W
 
 |-----------------------|------------------|-------------|-------------|
 |-----------------------|------------------|-------------|-------------|
 |-12---(12)---12--------|------------------|-------------|-------------|
 |-12---(12)---12--------|------------------|-------------|-------------|
 |-13---(13)---13--------|------------------|-------------|-------------|
 |-----------------------|------------------|-------------|-------------|

|
| Gtr I
| E E E E E E E E E E +E E E E E E E E E E E E E E
 
 |-----------------------|------------------|-------------|-------------|
 |-----------------------|------------------|-------------|-------------|
 |--2b3---------2pb3-----|-------2pb3r(2)---|-0-----0-----|-------0-----|
 |--------0----------0---|-----0----------0-|---0-----0---|-----0---0---|
 |-----------1---------1-|---1--------------|-----1-----1-|---1-------1-|
 |-----------------------|-3----------------|-------------|-3-----------|

Gtr I
[E] [E] [E] [E] [E] [E] [E] [E] [E] [E] [+E] [E] [E] [E] [E] [E] [E] [E] [E] [E] [E] [E] [E] [E]  
 
 ||-------------------|------------------|-------------|---------------||
 ||o------------------|------------------|-------------|--------------o||
 ||--2b3-----2pb3-----|-------2pb3r(2)---|-0-----0-----|-------0-------||
 ||------0--------0---|-----0----------0-|---0-----0---|-----0---0-----||
 ||o-------1--------1-|---1--------------|-----1-----1-|---1-------1--o||
 ||-------------------|-3----------------|-------------|-3-------------||

[D/F#] [Em]  
[E] [E] [E] [E] [E] [E] [E] [E] [E] [E] [+E] [E] [E] [E] [E] [E] [E] [E] [E] [E] [E] [E] [E] [E]  
 
 |-------------|------------------|-------------|-------------||
 |-------------|------------------|-------------|-------------||
 |-------2-----|-------2pb3r(2)---|-0-----0-----|-------0-----||
 |-----0---0---|-----0----------0-|---2-----2---|-----2---2---||
 |---0-------0-|---0--------------|-----2-----2-|---2-------0-||
 |-2-----------|-2----------------|-------------|-0-----------||

Chorus
[Cadd9] Q E E E E [Em]E E E E E E E E E E E E
 
 |-------------|-------------|-------------|
 |-^3----3-5-0-|-------------|-------------|
 |-^0----------|-------0-----|-------0-----|
 |-^2--2-------|-----2---2---|-----2---2---|
 |-^3----------|---2-------2-|---2-------0-|
 |-------------|-0-----------|-0-----------|

[C] Q E E E E [Em]E E E E E E E E E E E E
 
 |-------------|-------------|-------------|
 |-^1----1-3-0-|-------------|-------------|
 |-^0----------|-------0-----|-------0-----|
 |-^2--2-------|-----2-----2-|-----2---2---|
 |-^3----------|---2-----2---|---2-------0-|
 |-------------|-0-----------|-0-----------|

Cadd9 Em C Em N.C.
Q E E E E E E E E E E E E E E E E Q E E E E E E E E E E
 
 |-------------|-------------|-------------|-------------|--------------|
 |-^3----3-5-0-|-------------|-------------|-^1----1-3-0-|--------------|
 |-^0----------|-------0-----|-------0-----|-^0----------|-------0------|
 |-^2--2-------|-----2---2---|-----2---2---|-^2--2-------|-----2--------|
 |-^3----------|---2-------2-|---2-------0-|-^3----------|---2----------|
 |-------------|-0-----------|-0-----------|-------------|-0-------1-2--|

[Gm]  
[E] [E] [E] [E] [E] [E] [E] [E] [E] [E] [E] [E] [E] [E] [E] [E] [E] [E] [E] [E] [E] [E] [E] [E]  
 
 |-------------|-------------|-------------|-------------||
 |-------------|-------------|-------------|-------------||
 |-------0-----|-------0-----|-------0-----|-------0-----||
 |-----0---0---|-----0---0---|-----0---0---|-----0---0---||
 |---1-------1-|---1-------1-|---1-------1-|---1-------1-||
 |-3-----------|-3-----------|-3-----------|-3-----------||

Verse
[Gm]E E E E E E E E E E +E E E E E E E E E E E E E E 3x
 
 ||-------------------|------------------|-------------|---------------||
 ||o------------------|------------------|-------------|--------------o||
 ||--2b3-----2pb3-----|-------2pb3r(2)---|-0-----0-----|-------0-------||
 ||------0--------0---|-----0----------0-|---0-----0---|-----0---0-----||
 ||o-------1--------1-|---1--------------|-----1-----1-|---1-------1--o||
 ||-------------------|-3----------------|-------------|-3-------------||

[D/F#] [Em] 
[E] [E] [E] [E] [E] [E] [E] [E] [E] [E] [+E] [E] [E] [E] [E] [E] [E] [E] [E] [E] [E] [E] [E] [E]  
 
 ||--------------|------------------|-------------|---------------||
 ||o-------------|------------------|-------------|--------------o||
 ||--------2-----|-------2pb3r(2)---|-0-----0-----|-------0-------||
 ||------0---0---|-----0----------0-|---2-----2---|-----2---2-----||
 ||o---0-------0-|---0--------------|-----2-----2-|---2-------0--o||
 ||--2-----------|-2----------------|-------------|-0-------------||

Chorus
[Cadd9] Q E E E E [Em]E E E E E E E E E E E E
 
 |-------------|-------------|-------------|
 |-^3----3-5-0-|-------------|-------------|
 |-^0----------|-------0-----|-------0-----|
 |-^2--2-------|-----2---2---|-----2---2---|
 |-^3----------|---2-------2-|---2-------0-|
 |-------------|-0-----------|-0-----------|

[C] Q E E E E [Em]E E E E E E E E E E E E
 
 |-------------|-------------|-------------|
 |-^1----1-3-0-|-------------|-------------|
 |-^0----------|-------0-----|-------0-----|
 |-^2--2-------|-----2-----2-|-----2---2---|
 |-^3----------|---2-----2---|---2-------0-|
 |-------------|-0-----------|-0-----------|

[Cadd9] Q E E E E [Em]E E E E E E E E E E E E [C] Q E E E E E E E E E E
 
 |-------------|-------------|-------------|-------------|--------------||
 |-^3----3-5-0-|-------------|-------------|-^1----------|--------------||
 |-^0----------|-------0-----|-------0-----|-^0--0-0-0-0-|-0-0-0-0-0-0--||
 |-^2--2-------|-----2---2---|-----2---2---|-^2--2-2-2-2-|-2-2-2-2-2-2--||
 |-^3----------|---2-------2-|---2-------0-|-^3--3-3-3-3-|-3-3-3-3-3-3--||
 |-------------|-0-----------|-0-----------|-------------|--------------||

Bridge
H=H
[C#5]Gtrs II, III[C#sus2/G#] [C#m/G#] [C#5/G#]
[E] [E] [E] [E] [E] [E] [E] [E] [E] [E] [E] [E] [E] [E] [E] [E] [E] [E] [E] [E] [E] [E] [E] [E]  
 
 ||---------------||-||---------------||-------------|-------------|
 ||o-------------o||-||o-------------o||-------------|-------------|
 ||---------------||-||--8-8-8-8-8-8--||-9-9-9-9-9-9-|-9-9-9-9-9---|
 ||--6-6-6-6-6-6--||-||--6-6-6-6-6-6--||-6-6-6-6-6-6-|-6-6-6-6-6-6-|
 ||o-4-4-4-4-4-4-o||-||o-4-4-4-4-4-4-o||-4-4-4-4-4-4-|-4-4-4-4-4-4-|
 ||---------------||-||--4-4-4-4-4-4--||-4-4-4-4-4-4-|-4-4-4-4-4-4-|

Q.=80
[C5/G]E E E [B5/F#]E E E [E5]E E E [Bb5/C#5/C5/G]E E E E E E [B5/F#]E E E [E5]E Q Q.
 
 |-------------|-------------|-------------|-----------||
 |-------------|-------------|-------------|-----------||
 |-------------|-------------|-------------|-----------||
 |-5---5-4---4-|-2---2-3---6-|-5---5-4---4-|-2---------||
 |-3---3-2---2-|-2---2-1---4-|-3---3-2---2-|-2---------||
 |-3---3-2---2-|-0---0-1---4-|-3---3-2---2-|-0---------||

Guitar Solo
Q.=88
[Bb5]Gtr IV[C5] [Bb5]
~~~~~~~~~~~~~~~~~~~~~~~
W S S S S E +Q.
 
 |-----------------------|------------------------------------|
 |-----------------------|-------14h15-14---(14)--------------|
 |-----------------------|-14h15------------------------------|
 |-----------------------|------------------------------------|
 |-----------------------|------------------------------------|
 |-----------------------|------------------------------------|

|
| Gtrs II, III
| E S S S S E S S S S E S S S S E S S a S S
 
 |-----------------------|------------------------------------|
 |-----------------------|------------------------------------|
 |-10---------10---------|-------------------10------10s12s10-|
 |--8----------8---------|--------------------8-------8s10s=8-|
 |----0-0-0-0----0-0-0-0-|--0-----0--0--0-0------0-0----------|
 |-----------------------|------------------------------------|

~[A5]~~~~~~~~~~~~~~~~~~~~~~~~~~~~~~
+H. +Q a E +E. S +E
 
 |------------------------|------------------------------------|
 |-(14)-------------------|-(14)-----14h15---(15)---14-(14)----|
 |------------------------|------------------------------------|
 |------------------------|------------------------------------|
 |------------------------|------------------------------------|
 |------------------------|------------------------------------|

|
| E S S S S E S S S S E S S S S E S S S S
 
 |------------------------|------------------------------------|
 |------------------------|------------------------------------|
 |---9----------9---------|------------------------------------|
 |---7----------7---------|---7----------------7---------------|
 |------0-0-0-0---0-0-0-0-|---0--0-0-----0-0---0--0--0---0--0--|
 |------------------------|------------------------------------|

[Bb5] ~~~[C5] [Bb5]
H. S E. E +Q E
 
 |------------------------|-----------------------------------|
 |------------------------|-----------------------------------|
 |-15---------------------|-14h15------14---(14)--------12----|
 |------------------------|-----------------------------------|
 |------------------------|-----------------------------------|
 |------------------------|-----------------------------------|

|
| E S S S S E S S S S E S S S S E S S a S S
 
 |------------------------|-----------------------------------|
 |------------------------|-----------------------------------|
 |-10----------10---------|------------------10------10s12s10-|
 |--8-----------8---------|-------------------8-------8s10s=8-|
 |-----0-0-0-0----0-0-0-0-|--0-----0-0--0-0------0-0----------|
 |------------------------|-----------------------------------|

[A5] \1/ \2.5_____________________|
E +Q +Q. +Q. +E +E E
 
 |-----------------------------|-------------------------------------||
 |-----------------------------|-------------------------------------||
 |-14-(14)--------(14)---------|-(14)--------------(14)---(14)-------||
 |-----------------------------|-------------------------------------||
 |-----------------------------|-------------------------------------||
 |-----------------------------|-------------------------------------||

|
| E S S S S E S S S S S S S S S S S S S S S S
 
 |-----------------------------|-------------------------------------||
 |-----------------------------|-------------------------------------||
 |--9---------------9----------|-------------------------------------||
 |--7---------------7----------|-------------------------------------||
 |------0---0-0-0------0-0-0-0-|---0-----0-0-0-0-0---0--0---0--0-0-0-||
 |-----------------------------|-------------------------------------||

Verse
$
[Bb5]Gtrs II, III[C5] [Bb5]
E S S S S E S S S S E S S S S E S S a S S
 
 |-----------------------|---------------------------|
 |-----------------------|---------------------------|
 |-10---------10---------|-----------10-----10s12s10-|
 |--8----------8---------|------------8------8s10s=8-|
 |----0-0-0-0----0-0-0-0-|-0-0-0-0-0----0-0----------|
 |-----------------------|---------------------------|

[A5]E S S S S E S S S S E S S S S E S S S S
 
 |---------------------|---------------------|
 |---------------------|---------------------|
 |-9---------9---------|---------------------|
 |-7---------7---------|-7---------7---------|
 |---0-0-0-0---0-0-0-0-|-0-0-0-0-0-0-0-0-0-0-|
 |---------------------|---------------------|

[Bb5] E S S S S E S S S S E S S S S E S S a [C5] S [Bb5] S
 
 |-----------------------|---------------------------|
 |-----------------------|---------------------------|
 |-10---------10---------|-----------10-----10s12s10-|
 |--8----------8---------|------------8------8s10s=8-|
 |----0-0-0-0----0-0-0-0-|-0-0-0-0-0----0-0----------|
 |-----------------------|---------------------------|

[A5]E S S S S E S S S S [C]E S S S S E S S S S
 
 |---------------------|---------------------||
 |---------------------|---------------------||
 |-9---------9---------|-8---------8---------||
 |-7---------7---------|-7---------7---------||
 |---0-0-0-0---0-0-0-0-|---0-0-0-0---0-0-0-0-||
 |---------------------|---------------------||

Verse
[F#/Bb]  
 
 PM----| PM----| PM----| PM----|

E S S S S E S S S S E S S S S E S S S S
 
 ||-----------------------|---------------------|
 ||o----------------------|---------------------|
 ||--11-------------------|---------------------|
 ||---8-------------------|---------------------|
 ||o----------------------|---------------------|
 ||-----0-0-0-0-0-0-0-0-0-|-0-0-0-0-0-0-0-0-0-0-|

[Bb5]  
 
 PM----| PM----| PM----| PM----|

E S S S S E S S S S E S S S S E S S S S
 
 |----------------------|---------------------|
 |----------------------|---------------------|
 |-10-------------------|---------------------|
 |--8-------------------|---------------------|
 |----------------------|---------------------|
 |----0-0-0-0-0-0-0-0-0-|-0-0-0-0-0-0-0-0-0-0-|

[F#/Bb]  
 
 PM----| PM----| PM----|

E S S S S E S S S S E S S S S Q E
 
 |-----------------------|------------------|
 |-----------------------|------------------|
 |-11---------11---------|-----------11--11-|
 |--8----------8---------|------------8---8-|
 |-----------------------|------------------|
 |----0-0-0-0----0-0-0-0-|-0-0-0-0-0--------|

1.
[Bb5]  
 
 PM----| PM----| PM----| PM----|

E S S S S E S S S S E S S S S E S S S S
 
 |----------------------|----------------------||
 |----------------------|---------------------o||
 |-10-------------------|----------------------||
 |--8-------------------|----------------------||
 |----------------------|---------------------o||
 |----0-0-0-0-0-0-0-0-0-|-0-0-0-0-0-0-0-0-0-0--||

2.
[Bb5] [EbE5/Bb]  
 
 PM----| PM----|

E S S S S E S S S S E S S S S E S S S S
 
 |-----------------------|---12-12-12-12-12-12-12-12-12-||
 |-----------------------|---12-12-12-12-12-12-12-12-12-||
 |-10---------10---------|-9--9--9--9--9--9--9--9--9--9-||
 |--8----------8---------|-8--8--8--8--8--8--8--8--8--8-||
 |-----------------------|------------------------------||
 |----0-0-0-0----0-0-0-0-|------------------------------||

Bridge
E5 F5 E5 F5 N.C.
 
 PM----| PM----| PM----| PM--------------| PM------| PM|

E S S S S E S S S S e S S S S E S S S S S S S S S S S S S S S S
 
 |---------------------||-----------------------||--------------------------|
 |---------------------||o---------------------o||--------------------------|
 |---------------------||-----------------------||--------------------------|
 |---------------------||-----------------------||--------------------------|
 |-2---------3---------||o-2---------3---------o||-------2-----------5------|
 |-0-0-0-0-0-1-0-0-0-0-||--0-0-0-0-0-1-0-0-0-0--||-0-1-4---4-1-0-4-7---7-4--|

E5 F5 E5 F5 N.C.
 
 PM----| PM----| PM----| PM----| ~~~~~~~

E S S S S E S S S S e S S S S E S S S S S S S S S S S S S S +E
 
 |---------------------||-----------------------||---------------------------|
 |---------------------||o---------------------o||---------------------------|
 |---------------------||-----------------------||---------------------------|
 |---------------------||-----------------------||---------------------------|
 |-2---------3---------||o-2---------3---------o||-------2-----------[5]-(5)-|
 |-0-0-0-0-0-1-0-0-0-0-||--0-0-0-0-0-1-0-0-0-0--||-0-1-4---4-1-0-4-7---------|

E5 F5 E5 F5 N.C.
 
 PM----| PM----| PM----| PM--------------| PM------| PM|

E S S S S E S S S S e S S S S E S S S S S S S S S S S S S S S S
 
 |---------------------||-----------------------||--------------------------|
 |---------------------||o---------------------o||--------------------------|
 |---------------------||-----------------------||--------------------------|
 |---------------------||-----------------------||--------------------------|
 |-2---------3---------||o-2---------3---------o||-------2-----------5------|
 |-0-0-0-0-0-1-0-0-0-0-||--0-0-0-0-0-1-0-0-0-0--||-0-1-4---4-1-0-4-7---7-4--|

To Coda
E5 F5 E5 F5 N.C. C5/G B5/F#
3/8 6/8
 
 PM----| PM----| PM----| PM----|

E S S S S E S S S S e S S S S E S S S S S S S S S S E E E E E E
 
 |---------------------||-----------------------||-------------||--------------||
 |---------------------||o---------------------o||-------------||--------------||
 |---------------------||-----------------------||-------------||--------------||
 |---------------------||-----------------------||-------------||-5---5-4---4--||
 |-2---------3---------||o-2---------3---------o||-------2-----||-3---3-2---2--||
 |-0-0-0-0-0-1-0-0-0-0-||--0-0-0-0-0-1-0-0-0-0--||-0-1-4---4-1-||-3---3-2---2--||

Verse
[Bb5] E S S S S E S S S S E S S S S E S S a [C5] S [Bb5] S
 
 |-----------------------|---------------------------|
 |-----------------------|---------------------------|
 |-10---------10---------|-----------10-----10s12s10-|
 |--8----------8---------|------------8------8s10s=8-|
 |----0-0-0-0----0-0-0-0-|-0-0-0-0-0----0-0----------|
 |-----------------------|---------------------------|

[A5]E S S S S E S S S S E S S S S E S S S S
 
 |---------------------|---------------------|
 |---------------------|---------------------|
 |-9---------9---------|---------------------|
 |-7---------7---------|-7---------7---------|
 |---0-0-0-0---0-0-0-0-|-0-0-0-0-0-0-0-0-0-0-|
 |---------------------|---------------------|

[Bb5] E S S S S E S S S S E S S S S E S S a [C5] S [Bb5] S
 
 |-----------------------|---------------------------|
 |-----------------------|---------------------------|
 |-10---------10---------|-----------10-----10s12s10-|
 |--8----------8---------|------------8------8s10s=8-|
 |----0-0-0-0----0-0-0-0-|-0-0-0-0-0----0-0----------|
 |-----------------------|---------------------------|

D.S. al Coda
[A5]E S S S S E S S S S S S S S S S S S S S S S
 
 |---------------------|--------------------------||
 |---------------------|--------------------------||
 |-9---------9---------|--------------------------||
 |-7---------7---------|--------------------------||
 |---0-0-0-0---0-0-0-0-|-0-0-0-0-0-0-0-0-0-0-0-0--||
 |---------------------|--------------------------||

Pre-Chorus
&
N.C. E5/B Eb5/Bb
 
 PM--| PM------| PM| PM|

S S S S S S S S S S S S E E E Q.
 
 |-------------------------||-------------|
 |-------------------------||o------------|
 |-------------------------||-------------|
 |-------------------------||--2-----1----|
 |-------2-----------5-----||o-2-----1----|
 |-0-1-4---4-1-0-4-7---7-4-||----3-0------|

[F5] [G5F5G5] [E5] [Eb5/Bb] [F5] [G5F5G5]  
 
 PM----| PM----|

E S S E E E E E E E Q. E S S E E E E
 
 |---------------|---0--------|------------------||
 |---------------|-----0------|-----------------o||
 |---------------|------------|------------------||
 |---------------|-------1----|------------------||
 |-3-3-3-3-5-3-5-|-2-----1----|-3-3-3-3-5-3-5---o||
 |-1-1-1-1-3-1-3-|-0----------|-1-1-1-1-3-1-3----||

Chorus
Q.=94 1. 2.
N.C.
[E] [E] [E] [E] [E] [E] [E] [E] [E] [E] [E] [E] [E] [E] [E] [E] [E] [E] [E] [E] [E] [E] [E] [E] [E] [E] [E] [E] [E] [E]  
 
 ||--------------|-------------|-------------|--------------||-------------|
 ||o-------------|-------------|-------------|-------------o||-------------|
 ||--------------|-------------|-------------|--------------||-------------|
 ||--7---7---7---|-6---6---6---|-5---5---5---|-3---3---3----||-3---3---1---|
 ||o---0---0---0-|---0---0---0-|---0---0---0-|---0---0---0-o||---0---0---0-|
 ||--------------|-------------|-------------|--------------||-------------|

[E] [E] [E] [E] [E] [E] [E] [E] [E] [E] [E] [E] [E] [E] [E] [E] [E] [E] [E] [E] [E] [E] [E] [E]  
 
 |-------------|-------------|-------------|-------------|
 |-------------|-------------|-------------|-------------|
 |-------------|-------------|-------------|-------------|
 |-7---7---7---|-6---6---6---|-5---5---5---|-3---3---3---|
 |---0---0---0-|---0---0---0-|---0---0---0-|---0---0---0-|
 |-------------|-------------|-------------|-------------|

Gtr V
W W W Q. Q +E
 
 |-------------|-------------|----------------|----------19pb20r==(19)-||
 |-------------|-------------|----------------|------------------------||
 |-------------|-------------|----------------|------------------------||
 |-------------|-------------|----------------|------------------------||
 |-------------|-------------|----------------|------------------------||
 |-------------|-------------|----------------|------------------------||

|
| Gtr III Gtr IV
| E E E E E E E E E E E E E E E E E E E E E Q +E
 
 |-------------|-------------|----------------|------------------------||
 |-------------|-------------|----------------|----------15pb17r==(15)-||
 |-------------|-------------|----------------|------------------------||
 |-7---7---7---|-9---9---9---|-10---10---10---|-12----12---------------||
 |---0---0---0-|---0---0---0-|----0----0----0-|-----0------------------||
 |-------------|-------------|----------------|------------------------||

|
| Gtr II
| E E E E E E E E E E E E E E E E E E E E E E E E
 
 |-------------|-------------|----------------|------------------------||
 |-------------|-------------|----------------|------------------------||
 |-------------|-------------|----------------|------------------------||
 |-7---7---7---|-6---6---6---|--5----5----5---|--3-----3--------1------||
 |---0---0---0-|---0---0---0-|----0----0----0-|-----0-----0---------0--||
 |-------------|-------------|----------------|------------------------||

Bridge
Q.=96
N.C.
Gtr V
~~~~~~~~~~~~~~~~~~~~~~~~~~~~~~~~~~~~~~~~~~~~~~~~~~~~~~~~~~
H. +H.
 
 |-19b20========================|=(19)-----------------------|
 |------------------------------|----------------------------|
 |------------------------------|----------------------------|
 |------------------------------|----------------------------|
 |------------------------------|----------------------------|
 |------------------------------|----------------------------|

|
| Gtr IV
| ~~~~~~~~~~~~~~~~~~~~~~~~~~~~~~~~~~~~~~~~~~~~~~~~~~~~~~~~~~
| H. +H.
 
 |------------------------------|----------------------------|
 |-15b17========================|=(15)-----------------------|
 |------------------------------|----------------------------|
 |------------------------------|----------------------------|
 |------------------------------|----------------------------|
 |------------------------------|----------------------------|

|
| Gtrs II, III
 
 | PM------| PM------| PM------| PM--|

| S S S S S S S S S S S S S S S S S S S S S S S S
 
 |------------------------------|----------------------------|
 |------------------------------|----------------------------|
 |------------------------------|----------------------------|
 |------------------------------|----------------------------|
 |--7---------------7-----------|---7------------5-----------|
 |--------5-5-5-5-5---4-4-4-4-4-|------3-3-3-3-3---3-3-3-0h3-|

>
~~~~~~~~~~~~~~~~~~~~~~~~~~~~~~~~~~~~
+H. +H.
 
 |-(19)-----------------------|-(19)r--------------------------|
 |----------------------------|--------------------------------|
 |----------------------------|--------------------------------|
 |----------------------------|--------------------------------|
 |----------------------------|--------------------------------|
 |----------------------------|--------------------------------|

|
| >
|~~~~~~~~~~~~~~~~~~~~~~~~~~~~~~~~~~~~
| +H. +H.
 
 |----------------------------|--------------------------------|
 |-(15)-----------------------|-(15)r--------------------------|
 |----------------------------|--------------------------------|
 |----------------------------|--------------------------------|
 |----------------------------|--------------------------------|
 |----------------------------|--------------------------------|

|
 
 | PM------| PM------| PM------| PM PM PM

| S S S S S S S S S S S S S S S S S S S S S S S S
 
 |----------------------------|--------------------------------|
 |----------------------------|--------------------------------|
 |----------------------------|--------------------------------|
 |----------------------------|--------------------------------|
 |---5------------5-----------|---5-------------3---2---3------|
 |------3-3-3-3-3---2-2-2-2-2-|-------1-1-1-1-1---1---1---1----|

Gtrs II, III
 
 PM------| PM------| PM------| PM--|

S S S S S S S S S S S S S S S S S S S S S S S S
 
 ||--------------------------|-------------------------|
 ||o-------------------------|-------------------------|
 ||--------------------------|-------------------------|
 ||--------------------------|-------------------------|
 ||o-7-----------7-----------|-7-----------5-----------|
 ||----5-5-5-5-5---4-4-4-4-4-|---3-3-3-3-3---3-3-3-0h3-|
 PM------| PM------| PM------| PM PM PM

S S S S S S S S S S S S S S S S S S S S S S S S
 
 |-------------------------|----------------------------||
 |-------------------------|---------------------------o||
 |-------------------------|----------------------------||
 |-------------------------|----------------------------||
 |-5-----------5-----------|-5-----------3---2---3-----o||
 |---3-3-3-3-3---2-2-2-2-2-|---1-1-1-1-1---1---1---1----||
 PM------| PM------| PM------| PM--|

S S S S S S S S S S S S S S S S S S S S S S S S
 
 |-------------------------|-------------------------|
 |-------------------------|-------------------------|
 |-------------------------|-------------------------|
 |-------------------------|-------------------------|
 |-7-----------7-----------|-7-----------5-----------|
 |---5-5-5-5-5---4-4-4-4-4-|---3-3-3-3-3---3-3-3-0h3-|
 PM------| PM------| PM------|

S S S S S S S S S S S S S S S S S S E +S S S S
 
 |-------------------------|-----------------------------||
 |-------------------------|-----------------------------||
 |-------------------------|-----------------------------||
 |-------------------------|-----------------------------||
 |-5-----------5-----------|-5-----------[2]b3r(2)p0-----||
 |---3-3-3-3-3---2-2-2-2-2-|---1-1-1-1-1-------------3p0-||

Guitar Solo
Q.=92
[C#5]Gtr IV[C#sus2]
|-3-| |-3--|
E S S S S S S S E E S S S E E E E E
 
 |-9-0-0-0-0-8h9p8-0----|----------------8-|
 |-------------------10-|-9h10p9-0---------|
 |----------------------|----------9-8-9---|
 |----------------------|------------------|
 |----------------------|------------------|
 |----------------------|------------------|

|
| Gtrs II, III
| E E E E E E E E E E E E
 
 |----------------------|------------------|
 |----------------------|------------------|
 |----------------------|-8------8-8-8-8-8-|
 |-6-6---6---6-----6--6-|-6------6-6-6-6-6-|
 |-4-4---4---4-----4--4-|-4------4-4-4-4-4-|
 |----------------------|------------------|

[C#m] [C#sus2]  
 
 |-3-| |-3-| |-3-| |-3-|

E E E E S S S S S S E E S S S S S S S S S S
 
 |---------------------|--------------------------|
 |-------8-7h8p7s5h7p5-|--------------------------|
 |-9-8-9---------------|-8-9-8h9p8-6-8-9-8-6-8-6--|
 |---------------------|--------------------------|
 |---------------------|--------------------------|
 |---------------------|--------------------------|

|
| E E E E E E E E E E E E
 
 |---------------------|--------------------------|
 |---------------------|--------------------------|
 |-9-9-9-9-9-----9-----|-8-8-8-----8---8---8------|
 |-6-6-6-6-6-----6-----|-6-6-6-----6---6---6------|
 |-4-4-4-4-4-----4-----|-4-4-4-----4---4---4------|
 |---------------------|--------------------------|

[C5]~~~~~~~~~~~ [Csus2] ~~~~~~~~~~~~ [Cm] [Csus2] ~~~
Q. +Q E Q. +Q E E E E E E E E E E Q.
 
 |-----------------|-------------------|-------------------|------------------|
 |-----------------|-------------------|-------------------|------------------|
 |-5------(5)---5/-|-17------(17)------|-------------------|------------------|
 |-----------------|-------------------|-------------------|------------------|
 |-----------------|----------------10-|-10s11-11-11s15-15-|-15s14-14-14------|
 |-----------------|-------------------|-------------------|------------------|

|
| E E E E E E E E E E E E E E E E E E E E E E E E
 
 |-----------------|-------------------|-------------------|------------------|
 |-----------------|-------------------|-------------------|------------------|
 |-----------------|--7--7-7---7--7--7-|--8--8--8--8--8--8-|--7--7--7--7--7-7-|
 |-5--5-5--5--5-5--|--5--5-5---5--5--5-|--5--5--5--5--5--5-|--5--5--5--5--5-5-|
 |-3--3-3--3--3-3--|--3--3-3---3--3--3-|--3--3--3--3--3--3-|--3--3--3--3--3-3-|
 |-----------------|-------------------|-------------------|------------------|

[C#5]  
 
 |------5------| |------5------| |------5------|

S S S S S S S S S S S S S S S
 
 |-0-16-21---16----------16---21-16------------16-17-|
 |--------------19-16-19------------19-16-19---------|
 |---------------------------------------------------|
 |---------------------------------------------------|
 |---------------------------------------------------|
 |---------------------------------------------------|

|
| E E E E E E
 
 |---------------------------------------------------|
 |---------------------------------------------------|
 |---------------------------------------------------|
 |-6-------6--------6-------6--------6-------6-------|
 |-4-------4--------4-------4--------4-------4-------|
 |---------------------------------------------------|

[C#sus2] ~~~~~~~~~~~~[C#m]~~~~~~
 
 |----------9:6----------| |-------5:3-------| |---3---|

S S S S S S S S S Q. +E E E E E E E E T T T T
 
 |-16----16-19-16------------------------|-------16---17-20---16-17------17-------------|
 |----19----------19-16-19-16-19b21======|=(19)r--------------------19------17-19-17-16-|
 |---------------------------------------|----------------------------------------------|
 |---------------------------------------|----------------------------------------------|
 |---------------------------------------|----------------------------------------------|
 |---------------------------------------|----------------------------------------------|

|
| E E E E E E E E E E E E
 
 |---------------------------------------|----------------------------------------------|
 |---------------------------------------|----------------------------------------------|
 |--8--------8--------8--------8-----8-8-|---9------9-------9-----9----9-----9----------|
 |--6--------6--------6--------6-----6-6-|---6------6-------6-----6----6-----6----------|
 |--4--------4--------4--------4-----4-4-|---4------4-------4-----4----4-----4----------|
 |---------------------------------------|----------------------------------------------|

[C#sus2] [C5] ~~~~~~~~~~~~
S S S S S S E +E +E Q. +Q E
 
 |------------------------------------|-------------------|
 |----17-16----16---------------------|-------------------|
 |-18-------18----17-18b20==(18)r(18)-|-17------(17)---16-|
 |------------------------------------|-------------------|
 |------------------------------------|-------------------|
 |------------------------------------|-------------------|

|
| E E E E E E E E E E E E
 
 |------------------------------------|-------------------|
 |------------------------------------|-------------------|
 |--8-----8-----8-----8-------8----8--|-------------------|
 |--6-----6-----6-----6-------6----6--|--5--5-5---5--5--5-|
 |--4-----4-----4-----4-------4----4--|--3--3-3---3--3--3-|
 |------------------------------------|-------------------|

[Csus2]  
 
 |------5:3------| |------5:3------|

[E] [E] [E] [E] [E] [E] [E] [E] [E] [E]  
 
 |-19---------20---------15--------------|
 |---------------------------------------|
 |----16s==17------17s12------12s13---13-|
 |---------------------------------------|
 |---------------------------------------|
 |---------------------------------------|

|
| E E E E E E
 
 |---------------------------------------|
 |---------------------------------------|
 |--7----7-------7-----7----7-------7----|
 |--5----5-------5-----5----5-------5----|
 |--3----3-------3-----3----3-------3----|
 |---------------------------------------|

[Cm]  
 
 |----------8:6-----------| |----------8:6-----------|

S S S S S S S S S S S S S S S S
 
 |----------------------------------------------15h==16h19-|
 |---------------15h16p==15----------15h==16h18------------|
 |-16p13h16---17------------17p16h17-----------------------|
 |---------------------------------------------------------|
 |---------------------------------------------------------|
 |---------------------------------------------------------|

|
| E E E E E E
 
 |---------------------------------------------------------|
 |---------------------------------------------------------|
 |--8-------8----------8--------8-------8----------8-------|
 |--5-------5----------5--------5-------5----------5-------|
 |--3-------3----------3--------3-------3----------3-------|
 |---------------------------------------------------------|

[Csus2]  
 
 |----------8:6-----------| |----------8:6-----------|

S S S S S S S S S S S S S S S S
 
 |-16p15h16---19p15--------------------------16h19p==17p16-||
 |------------------18p==16p15----16h17h==20---------------||
 |-----------------------------17--------------------------||
 |---------------------------------------------------------||
 |---------------------------------------------------------||
 |---------------------------------------------------------||

|
| E E E E E E
 
 |---------------------------------------------------------||
 |---------------------------------------------------------||
 |--7-------7----------7--------7-------7----------7-------||
 |--5-------5----------5--------5-------5----------5-------||
 |--3-------3----------3--------3-------3----------3-------||
 |---------------------------------------------------------||

Bridge
Q.=97
N.C.
~~~~~~~~~~~~~~~~~~~~~~~~~~~~~~~
H. +H.
 
 |--------------------------|---------------------------|
 |-17-----------------------|-(17)----------------------|
 |--------------------------|---------------------------|
 |--------------------------|---------------------------|
 |--------------------------|---------------------------|
 |--------------------------|---------------------------|

|
| S S S S S S S S S S S S S S S S S S S S S S S S
 
 |--------------------------|---------------------------|
 |--------------------------|---------------------------|
 |--------------------------|---------------------------|
 |--------------0h3h6-3p0---|---3p0-------0-------------|
 |--------0h2h5-----------5-|-------5-2h5---5p2p0-5p2p0-|
 |--0h1h4-------------------|---------------------------|

>
~~~~
+H. W
 
 |---------------------------|-------------------------|
 |-(17)----------------------|-------------------------|
 |---------------------------|-------------------------|
 |---------------------------|-------------------------|
 |---------------------------|-------------------------|
 |---------------------------|-------------------------|

|
| S S S S S S S S S S S S S S S S S S S S S S S S
 
 |---------------------------|-------------------------|
 |---------------------------|-------------------------|
 |---------------------------|-------------------------|
 |---------------0h3h6-3p0---|-3p0-------0-------------|
 |---------0h2h5-----------5-|-----5-2h5---5p2p0-5p2p0-|
 |---0h1h4-------------------|-------------------------|

Gtrs II, III
S S S S S S S S S S S S S S S S S S S S S S S S
 
 |-------------------------|-------------------------|
 |-------------------------|-------------------------|
 |-------------------------|-------------------------|
 |-------------0h6h9-6p0---|-6p0-------0-------------|
 |-------0h5h8-----------8-|-----8-5h8---8p5p0-8p5p0-|
 |-0h4h7-------------------|-------------------------|
 PM| PM--------|

S S S S S S S S S S S S S S S S S S S S S S S S
 
 |-------------------------|-------------------------|
 |-------------------------|-------------------------|
 |-------------------------|-------------------------|
 |-------------0h6h9-6p0---|-6p0-------0-------------|
 |-------0h5h8-----------8-|-----8-5h8---8-5-0-8-5-0-|
 |-0h4h7-------------------|-------------------------|
 PM--| PM--------|

S S S S S S S S S S S S S S S S S S S S S S S S
 
 ||--------------------------|--------------------------||
 ||o-------------------------|-------------------------o||
 ||--------------------------|--------------------------||
 ||--------------0h3h6-3p0---|-3p0-------0--------------||
 ||o-------0h2h5-----------5-|-----5-2h5---5-2-0-5-2-0-o||
 ||--0h1h4-------------------|--------------------------||
 PM--| PM--------|

S S S S S S S S S S S S S S S S S S S S S S S S
 
 |-------------------------|-------------------------|
 |-------------------------|-------------------------|
 |-------------------------|-------------------------|
 |-------------0h6h9-6p0---|-6p0-------0-------------|
 |-------0h5h8-----------8-|-----8-5h8---8-5-0-8-5-0-|
 |-0h4h7-------------------|-------------------------|

Gtr III
~ ~
|-3-|
S S S S S S S S S S S S Q S S S Q E
 
 |-------------------------|---------------||
 |-------------------------|---------------||
 |-------------------------|---------------||
 |-------------0h6h9-6p0---|---------------||
 |-------0h5h8-----------8-|-7--5-7-5------||
 |-0h4h7-------------------|----------8--7-||

|
| Gtr II
| ~ ~
| |-3-|
| S S S S S S S S S S S S Q S S S Q E
 
 |-------------------------|---------------||
 |-------------------------|---------------||
 |-------------------------|---------------||
 |-------------0h6h9-6p0---|-7--5h7p5------||
 |-------0h5h8-----------8-|----------8--7-||
 |-0h4h7-------------------|---------------||

Guitar Solo
Q.=91
[E5]Gtr IV[F5]
S S S S S S S S S S S S
 
 |-------------------------------------|
 |-------------------12----------------|
 |----------11-12-14----14-12-11-12-14-|
 |-14-13-14----------------------------|
 |-------------------------------------|
 |-------------------------------------|

|
| Gtrs II, III
 
 | PM------| PM------|

| E S S S S E S S S S
 
 |-------------------------------------|
 |-------------------------------------|
 |-------------------------------------|
 |-------------------------------------|
 |--2-----------------3----------------|
 |--0-----0--0--0--0--1-----0--0--0--0-|

[E5] S S S S S S [F5] S S S S S S [E5] Q. [F5] +E. +S +S S
 
 |-------------------12----14----15----|-14b15==========(14)---(14)r(14)-12-|
 |-12-------------12----12----12----12-|------------------------------------|
 |----14-12-11-12----------------------|------------------------------------|
 |-------------------------------------|------------------------------------|
 |-------------------------------------|------------------------------------|
 |-------------------------------------|------------------------------------|

|
 
 | PM------| PM------| PM----| PM----------|

| e S S S S E S S S S e S S S S E S S S S
 
 |-------------------------------------|------------------------------------|
 |-------------------------------------|------------------------------------|
 |-------------------------------------|------------------------------------|
 |-------------------------------------|------------------------------------|
 |--2-----------------3----------------|--2---------------3-----------------|
 |--0-----0--0--0--0--1-----0--0--0--0-|--0-----0-0-0-0---1--0---0----0---0-|

N.C.
~~~~~~~~~~~~~~~~~~~~~~~~~~~~~
S S Q +Q +S S
 
 |----12---------------------------------

Important: The song above is NOT stored on the Chordie server. The original song is hosted at www.guitaretab.com. Chordie works as a search engine and provides on-the-fly formatting. Chordie does not index songs against artists'/composers' will. To remove this song please click here.

Text color:
Chord color:
Chord grids: 
Font size:    
Page size: 

A5 B5/F# Bb Bb5 C C#5 C#5/G# C#m C#m/G# C#sus2 C#sus2/G# C5 C5/G Cadd9 Cm Csus2 D D/F# E E5 Em F F5 G Gm
Rate #2 of 2 versions

Jango Player

Login - add to songbook

SHARE PAGE  



You need to log in to post comments