Guitar Tabs, Chords and Lyrics
Server problems seems to be fixed. Chordie has been experiencing problems with songs disappearing. These issues now seems to be fixed, but still verifying the fix. If you find anything strange, please email admin@chordie.com.


This Godless Endeavor   Nevermore

 
 |-------------|------||
 |-------------|------||
 |-------------|------||
 |-------------|------||
 |-------------|------||

 


 


 Metal Intro


 Slower Feel Q=75


 [4/4] Gtr I


 |--3---|


 H. Q Q Q Q E S S S


 

 
 |----------------------|-------------------------|
 |----------------------|-------------------------|
 |----------------------|-------------------------|
 |------------------3---|-----5-------------------|
 |-0--------------------|-5-------8---1-1--1---1--|

 


 |


 | Gtr II


 | |--3---|


 | E E E E S S E E E E E E E E E E S S S


 

 
 |-0--0-0-0-0-(0)-0-0-0-|-0-0-0-0-0-0-0-0-(0)-(0)-|
 |------9-----------9---|-----9-------9-----------|
 |-9--------9--9--------|-9-------9-----9--9---9--|
 |----------------------|-------------------------|
 |----------------------|-------------------------|

 


 


 H. Q Q Q Q Q


 

 
 |----------------------|---------------------------|
 |----------------------|---------------------------|
 |----------------------|---------------------------|
 |------------------3---|-----5---3s==8-------------|
 |-0--------------------|-5-------------------------|

 


 |


 | |--3---|


 | E E E E S S E E E E E E E E E E S S S


 

 
 |-0--0-0-0-0-(0)-0-0-0-|-0-0-0-0-0-0-0-0-(0)-(0)---|
 |------9-----------9---|-----9-------9-------------|
 |-9--------9--9--------|-9-------9-----9--9---9----|
 |----------------------|---------------------------|
 |----------------------|---------------------------|

 


 


 Q E E +Q Q Q Q +Q Q


 

 
 |------7--(7)-(7)-----------|-----------------------------|
 |---------------------------|------6----(6)---------------|
 |----------5--(5)-----------|-----------------------------|
 |-3---(3)-(3)-(3)-------5---|-4---(4)---(4)-----------5---|
 |---------------------------|-----------------------------|

 


 |


 | E E E E S S E E E E E E E S S S S E E


 

 
 |-0-0--0---0---0--(0)-0-0-0-|-0-0--0--0--0--(0)-0-(0)-0-0-|
 |------9----------------9---|------9------------------9---|
 |-9------------9---9--------|-9----------9---9--9--9------|
 |---------------------------|-----------------------------|
 |---------------------------|-----------------------------|

 


 


 Q E E +Q Q W


 

 
 |------7--(7)-(7)-----------|-----------------------------------|
 |---------------------------|-----------------------------------|
 |----------5--(5)-----------|-----------------------------------|
 |-3---(3)-(3)-(3)-------5---|-----------------------------------|
 |---------------------------|-5---------------------------------|

 


 |


 

 
 | |-----6-----| |----6----|

 


 | E E E E S S E E E E E E E S S S S S S S S S S S S


 

 
 |-0-0--0---0---0--(0)-0-0-0-|-0-0-0-0---------------------------|
 |------9----------------9---|-----9---9-(9)-9-9-9-9-5-5-5-5-5-5-|
 |-9------------9---9--------|-9---------------------9-9-9-9-9-9-|
 |---------------------------|-----------------------------------|
 |---------------------------|-----------------------------------|

 


 


 |--3---|


 Q Q +Q Q Q Q Q E S S S


 

 
 |-------------------------------|-------------------------|
 |-------------------------------|-------------------------|
 |-------------------------------|-------------------------|
 |----------------7----(7)---3---|-----5---3---------------|
 |-0-------------(0)---(0)-------|-5-----------1-1--1---1--|

 


 |


 

 
 | |-----6-----| |--3---|

 


 | S S S S S S E E E E E E E E E E E E E S S S


 

 
 |-0-(0)----------0--0--0--0-0-0-|-0-0-0-0-0-0-0-0-(0)-(0)-|
 |-9--------------9----------9---|-----9-------9-----------|
 |-9-(9)-9-9-9-9--------9--------|-9-------9-----9--9---9--|
 |-------------------------------|-------------------------|
 |-------------------------------|-------------------------|

 


 


 H. Q Q Q Q Q


 

 
 |----------------------|-------------------------|
 |----------------------|-------------------------|
 |----------------------|-------------------------|
 |------------------3---|-----5---3s==8-----------|
 |-0--------------------|-5-----------------------|

 


 |


 | |--3---|


 | E E E E S S E E E E E E E E E E S S S


 

 
 |-0--0-0-0-0-(0)-0-0-0-|-0-0-0-0-0-0-0-0-(0)-(0)-|
 |------9-----------9---|-----9-------9-----------|
 |-9--------9--9--------|-9-------9-----9--9---9--|
 |----------------------|-------------------------|
 |----------------------|-------------------------|

 


 


 Q E E +Q Q Q Q +Q Q


 

 
 |------7--(7)-(7)-----------|-----------------------------|
 |---------------------------|------6----(6)---------------|
 |----------5--(5)-----------|-----------------------------|
 |-3---(3)-(3)-(3)-------5---|-4---(4)---(4)-----------5---|
 |---------------------------|-----------------------------|

 


 |


 | E E E E S S E E E E E E E S S S S E E


 

 
 |-0-0--0---0---0--(0)-0-0-0-|-0-0--0--0--0--(0)-0-(0)-0-0-|
 |------9----------------9---|------9------------------9---|
 |-9------------9---9--------|-9----------9---9--9--9------|
 |---------------------------|-----------------------------|
 |---------------------------|-----------------------------|

 


 


 Q E E +Q Q W


 

 
 |------7--(7)-(7)-----------|-----------------------------------|
 |---------------------------|-----------------------------------|
 |----------5--(5)-----------|-----------------------------------|
 |-3---(3)-(3)-(3)-------5---|-----------------------------------|
 |---------------------------|-5---------------------------------|

 


 |


 

 
 | |-----6-----| |----6----|

 


 | E E E E S S E E E E E E E S S S S S S S S S S S S


 

 
 |-0-0--0---0---0--(0)-0-0-0-|-0-0-0-0---------------------------|
 |------9----------------9---|-----9---9-(9)-9-9-9-9-5-5-5-5-5-5-|
 |-9------------9---9--------|-9---------------------9-9-9-9-9-9-|
 |---------------------------|-----------------------------------|
 |---------------------------|-----------------------------------|

 


 


 |--3---|


 Q Q +Q Q Q Q Q E S S S


 

 
 |-----------------------------|-------------------------|
 |-----------------------------|-------------------------|
 |-----------------------------|-------------------------|
 |--------------7----(7)---3---|-----5---3---------------|
 |-0-----------(0)---(0)-------|-5-----------1-1--1---1--|

 


 |


 

 
 | |----6----| |--3---|

 


 | S S S S S S E E E E E E E E E E E E E S S S


 

 
 |-0-0----------0--0--0--0-0-0-|-0-0-0-0-0-0-0-0-(0)-(0)-|
 |-9------------9----------9---|-----9-------9-----------|
 |-9-9-9-9-9-9--------9--------|-9-------9-----9--9---9--|
 |-----------------------------|-------------------------|
 |-----------------------------|-------------------------|

 


 


 Faster E.=155


 [6/4] [3/4] |--3--|


 W. S S S S S S S S S S S S S


 

 
 |------------------------------------------|-------------------------------||
 |------------------------------------------|-------------------------------||
 |------------------------------------------|-5---3-2h3p==2-----------------||
 |------------------------------------------|---3-----------3-5-2---3-0-----||
 |-0----------------------------------------|---------------------0-----3---||

 


 |


 

 
 | |----6----| |----6----|

 


 | E E E E S S S S S S S S S S S S E E E E S S S S S S S S S S S S


 

 
 |-0--0-0-0-------------------------0-0-0-0-|-------------------------------||
 |------9---9-------7-6-5-4---------9-------|-9---------------9-----9-9-9---||
 |-9--------9-9-9-9-9-9-9-9-9-9-9-9-----9---|-9-9-9-9---9---9-9-9-9-9-9-9---||
 |------------------------------------------|-------------------------------||
 |------------------------------------------|-------------------------------||

 


 


 Bridge


 

 
 |---3---|

 


 S S S S S S S S S S S S S S S S S S S S S S S S S


 

 
 |-----------------------------------------|-------------------------------------------------|
 |-----------------------------------------|-------------------------------------------------|
 |-----------------------------------------|-------------------------------------------------|
 |-7-------------------7-------------------|-8-------------------8------7--5h7p====5---------|
 |----6---5--0--5---6-----6---5--0--5---6--|----6---5--0--5---6-----6---------------------6--|

 


 |


 | S S S S S S S S S S S S S S S S S S S S S S S a S


 

 
 |-3-(3)-(3)-3-(3)-(3)-3-(3)-(3)-3-(3)-(3)-|-3-(3)-(3)-3-(3)-(3)-3-(3)-(3)-3---(3)---(3)-(3)-|
 |-----------9-------------------9---------|-----------9-------------------9----------9---9--|
 |-9--9---9--9--9---9--9--9---9--9--9---9--|-9--9---9--9--9---9--9--9---9--9----9---------9--|
 |-----------------------------------------|-------------------------------------------------|
 |-----------------------------------------|-------------------------------------------------|
 |---3---|

 


 S S S S S S S S S S S S S S S S S S S S S S S S S


 

 
 |-----------------------------------------|------------------------------------------------|
 |-----------------------------------------|------------------------------------------------|
 |-----------------------------------------|-5------3--2h3p====2----------------------------|
 |-7-------------------7-------------------|----3-----------------3--5--2------3--0---------|
 |----6---5--0--5---6-----6---5--0--5---6--|--------------------------------0---------3-----|

 


 |


 | S S S S S S S S S S S S S S S S S S S S S S S S


 

 
 |-3-(3)-(3)-3-(3)-(3)-3-(3)-(3)-3-(3)-(3)-|-3-(3)-(3)-3---(3)---(3)-0-(0)-(0)-0-(0)-(0)----|
 |-----------9-------------------9---------|-----------9------------------------------------|
 |-9--9---9--9--9---9--9--9---9--9--9---9--|-9--9---9--9----9-----9--9--9---9--9--9---9-----|
 |-----------------------------------------|------------------------------------------------|
 |-----------------------------------------|------------------------------------------------|
 |---3---|

 


 S S S S S S S S S S S S S S S S S S S S S S S S S


 

 
 |-----------------------------------------|-------------------------------------------------|
 |-----------------------------------------|-------------------------------------------------|
 |-----------------------------------------|-------------------------------------------------|
 |-7-------------------7-------------------|-8-------------------8------7--5h7p====5---------|
 |----6---5--0--5---6-----6---5--0--5---6--|----6---5--0--5---6-----6---------------------6--|

 


 |


 | S S S S S S S S S S S S S S S S S S S S S S S a S


 

 
 |-3-(3)-(3)-3-(3)-(3)-3-(3)-(3)-3-(3)-(3)-|-3-(3)-(3)-3-(3)-(3)-3-(3)-(3)-3---(3)---(3)-(3)-|
 |-----------9-------------------9---------|-----------9-------------------9----------9---9--|
 |-9--9---9--9--9---9--9--9---9--9--9---9--|-9--9---9--9--9---9--9--9---9--9----9---------9--|
 |-----------------------------------------|-------------------------------------------------|
 |-----------------------------------------|-------------------------------------------------|

 


 


 S S S S S S S S S S S S W


 

 
 |-----------------------------------------|---------||
 |-----------------------------------------|---------||
 |-----------------------------------------|---------||
 |-7-------------------7-------------------|---------||
 |----6---5--0--5---6-----6---5--0--5---6--|---------||

 


 |


 | S S S S S S S S S S S S Q H


 

 
 |-3-(3)-(3)-3-(3)-(3)-3-(3)-(3)-3-(3)-(3)-|-3-------||
 |-----------9-------------------9---------|---------||
 |-9--9---9--9--9---9--9--9---9--9--9---9--|-9-------||
 |-----------------------------------------|---------||
 |-----------------------------------------|---------||

 


 


 Q H W W S S S S S S S S S S S S


 

 
 |----------|--------|--------|-----------------------------------------||
 |----------|--------|--------|-7-10---7-----7--------------------------||
 |----------|--------|--------|-----------9------9--6--9---6-----6------||
 |----------|--------|--------|-------------------------------8------8--||
 |--0-------|--------|--------|-----------------------------------------||

 


 |


 | Q H W W S S S S S S S S S S S S


 

 
 |--0-------|--------|--------|-3-(3)-(3)-3-(3)-(3)-3-(3)-(3)-3-(3)-(3)-||
 |--9-------|--------|--------|-9-(9)-(9)-9-(9)-(9)-9-(9)-(9)-9-(9)-(9)-||
 |--9-------|--------|--------|-9--9---9--9--9---9--9--9---9--9--9---9--||
 |-11-------|--------|--------|-----------------------------------------||
 |----------|--------|--------|-----------------------------------------||

 


 


 Verse 1


 E S S S S S S S S S S E S S S S E S S S S


 

 
 |-------------------------------------------------|-----------------------------------------|
 |-------------------------------------------------|-----------------------------------------|
 |-------------------------------------------------|-----------------------------------------|
 |-7----------7------------------------------------|-8------8------------5------5------------|
 |-------------------0--0---0-----0---0--0--0---0--|-----------0--0---0------------0--0---0--|

 


 |


 | S T T T T S S S S S S S S S S S S S S S S S S S S S


 

 
 |-0-(0)-(0)-(0)-(0)-0-(0)-(0)-0-(0)-(0)-0-(0)-(0)-|-0-(0)-(0)-0-(0)-(0)-0-(0)-(0)-0-(0)-(0)-|
 |-------------------9-------------------9-(9)-(9)-|-----------9-(9)-(9)-----------9-(9)--9--|
 |-9--9---9---9---9--9--9---9--9--9---9--9--9---9--|-9--9---9--9--9---9--9--9---9--9--9---9--|
 |-------------------------------------------------|-----------------------------------------|
 |-------------------------------------------------|-----------------------------------------|

 


 


 E S S S S S S S S S S S S S S S S S S S S S S


 

 
 |-------------------------------------------------|--------------------------------|
 |-------------------------------------------------|--------------------------------|
 |-------------------------------------------------|--------------------------------|
 |-7----------7------------------------------------|-7--8---8--8-5-8---8---8--------|
 |-------------------0--0---0-----0---0--0--0---0--|-----------------7---5---4-0----|

 


 |


 | S T T T T S S S S S S S S S S S S S S S S S S S S S


 

 
 |-0-(0)-(0)-(0)-(0)-0-(0)-(0)-0-(0)-(0)-0-(0)-(0)-|-0-(0)-(0)----------------------|
 |-------------------9-------------------9-(9)-(9)-|-----------9-9-------9-9--------|
 |-9--9---9---9---9--9--9---9--9--9---9--9--9---9--|-9--9---9--9-9-9-9-9-9-9-9-9----|
 |-------------------------------------------------|--------------------------------|
 |-------------------------------------------------|--------------------------------|

 


 


 E S S S S S S S S S S E S S S S E S S S S


 

 
 |-------------------------------------------------|-----------------------------------------|
 |-------------------------------------------------|-----------------------------------------|
 |-------------------------------------------------|-----------------------------------------|
 |-7----------7------------------------------------|-8------8------------5------5------------|
 |-------------------0--0---0-----0---0--0--0---0--|-----------0--0---0------------0--0---0--|

 


 |


 | S T T T T S S S S S S S S S S S S S S S S S S S S S


 

 
 |-0-(0)-(0)-(0)-(0)-0-(0)-(0)-0-(0)-(0)-0-(0)-(0)-|-0-(0)-(0)-0-(0)-(0)-0-(0)-(0)-0-(0)-(0)-|
 |-------------------9-------------------9-(9)-(9)-|-----------9-(9)-(9)-----------9-(9)--9--|
 |-9--9---9---9---9--9--9---9--9--9---9--9--9---9--|-9--9---9--9--9---9--9--9---9--9--9---9--|
 |-------------------------------------------------|-----------------------------------------|
 |-------------------------------------------------|-----------------------------------------|

 


 


 E S S S S S S S S S S S S S S S S S S S S S S


 

 
 |-------------------------------------------------|--------------------------------------------|
 |-------------------------------------------------|-7-10---7-----7-----------------------------|
 |-------------------------------------------------|-----------9------9--6--9---6-----6---------|
 |-7----------7------------------------------------|-------------------------------8------8-----|
 |-------------------0--0---0-----0---0--0--0---0--|--------------------------------------------|

 


 |


 | S T T T T S S S S S S S S S S S S S S S S S S S S S


 

 
 |-0-(0)-(0)-(0)-(0)-0-(0)-(0)-0-(0)-(0)-0-(0)-(0)-|-3-(3)-(3)-3-(3)-(3)-3-(3)-(3)-3-(3)-(3)----|
 |-------------------9-------------------9-(9)-(9)-|-9-(9)-(9)-9-(9)-(9)-9-(9)-(9)-9-(9)-(9)----|
 |-9--9---9---9---9--9--9---9--9--9---9--9--9---9--|-9--9---9--9--9---9--9--9---9--9--9---9-----|
 |-------------------------------------------------|--------------------------------------------|
 |-------------------------------------------------|--------------------------------------------|

 


 


 E S S S S S S S S S S E S S S S E S S S S


 

 
 |-------------------------------------------------|-----------------------------------------|
 |-------------------------------------------------|-----------------------------------------|
 |-------------------------------------------------|-----------------------------------------|
 |-7----------7------------------------------------|-8------8------------5------5------------|
 |-------------------0--0---0-----0---0--0--0---0--|-----------0--0---0------------0--0---0--|

 


 |


 | S T T T T S S S S S S S S S S S S S S S S S S S S S


 

 
 |-0-(0)-(0)-(0)-(0)-0-(0)-(0)-0-(0)-(0)-0-(0)-(0)-|-0-(0)-(0)-0-(0)-(0)-0-(0)-(0)-0-(0)-(0)-|
 |-------------------9-------------------9-(9)-(9)-|-----------9-(9)-(9)-----------9-(9)--9--|
 |-9--9---9---9---9--9--9---9--9--9---9--9--9---9--|-9--9---9--9--9---9--9--9---9--9--9---9--|
 |-------------------------------------------------|-----------------------------------------|
 |-------------------------------------------------|-----------------------------------------|

 


 


 E S S S S S S S S S S S S S S S S S S S S S S


 

 
 |-------------------------------------------------|--------------------------------------||
 |-------------------------------------------------|--------------------------------------||
 |-------------------------------------------------|--------------------------------------||
 |-7----------7------------------------------------|-7--8---8---8---5---8----8---8--------||
 |-------------------0--0---0-----0---0--0--0---0--|-----------------------7---5---4-0----||

 


 |


 | S T T T T S S S S S S S S S S S S S S S S S S S S S


 

 
 |-0-(0)-(0)-(0)-(0)-0-(0)-(0)-0-(0)-(0)-0-(0)-(0)-|-0-(0)-(0)----------------------------||
 |-------------------9-------------------9-(9)-(9)-|-----------(9)-(9)-(9)-9-9-9-9-9-9----||
 |-9--9---9---9---9--9--9---9--9--9---9--9--9---9--|-9--9---9---9---9---9--9-9-9-9-9-9----||
 |-------------------------------------------------|--------------------------------------||
 |-------------------------------------------------|--------------------------------------||

 


 


 Breakdown


 S S S S S S S S S S S S S S S S S S S S S S S S


 

 
 |------------------------------------|-----------------------------------|
 |------------------------------------|-----------------------------------|
 |------------------------------------|-----------------------------------|
 |------------------------------------|-----------------------------------|
 |--3--3---3---3---3---3--3-3-3-3-3-3-|-3--4---4---4---4---4--4-4-4-4-4-4-|

 


 |


 | S S S S S S S S S S S S S S S S S S S S S S S S


 

 
 |--0-(0)-(0)-(0)-(0)-(0)-------------|-3-(3)-(3)-(3)-(3)-(3)-------------|
 |------------------------9-----------|-----------------------9-----9-----|
 |--9--9---9---9---9---9--9-9-9-9-9-9-|-9--9---9---9---9---9--9-9-9-9-9-9-|
 |-11---------------------------------|-----------------------------------|
 |------------------------------------|-----------------------------------|

 


 


 S S S S S S S S S S S S S S S S S S S S S S S S


 

 
 |-------------------------|----------------------------|
 |-------------------------|----------------------------|
 |-------------------------|----------------------------|
 |-------------------------|----------------------------|
 |-4-1-1-1-1-1-1-1-1-1-1-1-|-1-4-4-4-4-4-4-4-4-4-4-4----|

 


 |


 | S S S S S S S S S S S S S S S S S S S S S S S S


 

 
 |-------------------------|----------------------------|
 |-------------9-----------|-----------------7-6-5-4----|
 |-9-9-9-9-9-9-9-9-9-9-9-9-|-9-9-9-9-9-9-9-9-9-9-9-9----|
 |-------------------------|----------------------------|
 |-------------------------|----------------------------|

 


 


 S S S S S S S S S S S S S S S S S S S S S S S S


 

 
 |-----------------------------------|-----------------------------------|
 |-----------------------------------|-----------------------------------|
 |-----------------------------------|-----------------------------------|
 |-----------------------------------|-----------------------------------|
 |-4--3---3---3---3---3--3-3-3-3-3-3-|-3--4---4---4---4---4--4-4-4-4-4-4-|

 


 |


 | S S S S S S S S S S S S S S S S S S S S S S S S


 

 
 |-3-(3)-(3)-(3)-(3)-(3)-------------|-3-(3)-(3)-(3)-(3)-(3)-------------|
 |-----------------------9-----------|-----------------------9-----9-----|
 |-9--9---9---9---9---9--9-9-9-9-9-9-|-9--9---9---9---9---9--9-9-9-9-9-9-|
 |-----------------------------------|-----------------------------------|
 |-----------------------------------|-----------------------------------|

 


 


 S S S S S S S S S S S S S S S S S S S S S S S S


 

 
 |-------------------------|--------------------------------------||
 |-------------------------|--------------------------------------||
 |-------------------------|--------------------------------------||
 |-------------------------|--------------------------------------||
 |-4-1-1-1-1-1-1-1-1-1-1-1-|-1--4---4---4---4---4--4-4-4-4-4-4----||

 


 |


 | S S S S S S S S S S S S S S S S S S S S S S S S


 

 
 |-------------------------|-3-(3)-(3)-(3)-(3)-(3)----------------||
 |-------------9-----------|------------9---9------9---9-9-9-9----||
 |-9-9-9-9-9-9-9-9-9-9-9-9-|-9--9---9---9---9---9--9-9-9-9-9-9----||
 |-------------------------|--------------------------------------||
 |-------------------------|--------------------------------------||

 


 


 Verses 2 & 3


 $


 E S S S S S S S S S S E S S S S E S S S S


 

 
 |-------------------------------------------------|-----------------------------------------|
 |-------------------------------------------------|-----------------------------------------|
 |-------------------------------------------------|-----------------------------------------|
 |-7----------7------------------------------------|-8------8------------5------5------------|
 |-------------------0--0---0-----0---0--0--0---0--|-----------0--0---0------------0--0---0--|

 


 |


 | S T T T T S S S S S S S S S S S S S S S S S S S S S


 

 
 |-0-(0)-(0)-(0)-(0)-0-(0)-(0)-0-(0)-(0)-0-(0)-(0)-|-0-(0)-(0)-0-(0)-(0)-0-(0)-(0)-0-(0)-(0)-|
 |-------------------9-------------------9-(9)-(9)-|-----------9-(9)-(9)-----------9-(9)--9--|
 |-9--9---9---9---9--9--9---9--9--9---9--9--9---9--|-9--9---9--9--9---9--9--9---9--9--9---9--|
 |-------------------------------------------------|-----------------------------------------|
 |-------------------------------------------------|-----------------------------------------|

 


 


 E S S S S S S S S S S S S S S S S S S S S S S


 

 
 |-------------------------------------------------|--------------------------------------------|
 |-------------------------------------------------|-7-10---7-----7-----------------------------|
 |-------------------------------------------------|-----------9------9--6--9---6-----6---------|
 |-7----------7------------------------------------|-------------------------------8------8-----|
 |-------------------0--0---0-----0---0--0--0---0--|--------------------------------------------|

 


 |


 | S T T T T S S S S S S S S S S S S S S S S S S S S S


 

 
 |-0-(0)-(0)-(0)-(0)-0-(0)-(0)-0-(0)-(0)-0-(0)-(0)-|-3-(3)-(3)-3-(3)-(3)-3-(3)-(3)-3-(3)-(3)----|
 |-------------------9-------------------9-(9)-(9)-|-9-(9)-(9)-9-(9)-(9)-9-(9)-(9)-9-(9)-(9)----|
 |-9--9---9---9---9--9--9---9--9--9---9--9--9---9--|-9--9---9--9--9---9--9--9---9--9--9---9-----|
 |-------------------------------------------------|--------------------------------------------|
 |-------------------------------------------------|--------------------------------------------|

 


 


 E S S S S S S S S S S E S S S S E S S S S


 

 
 |-------------------------------------------------|-----------------------------------------|
 |-------------------------------------------------|-----------------------------------------|
 |-------------------------------------------------|-----------------------------------------|
 |-7----------7------------------------------------|-8------8------------5------5------------|
 |-------------------0--0---0-----0---0--0--0---0--|-----------0--0---0------------0--0---0--|

 


 |


 | S T T T T S S S S S S S S S S S S S S S S S S S S S


 

 
 |-0-(0)-(0)-(0)-(0)-0-(0)-(0)-0-(0)-(0)-0-(0)-(0)-|-0-(0)-(0)-0-(0)-(0)-0-(0)-(0)-0-(0)-(0)-|
 |-------------------9-------------------9-(9)-(9)-|-----------9-(9)-(9)-----------9-(9)--9--|
 |-9--9---9---9---9--9--9---9--9--9---9--9--9---9--|-9--9---9--9--9---9--9--9---9--9--9---9--|
 |-------------------------------------------------|-----------------------------------------|
 |-------------------------------------------------|-----------------------------------------|

 


 


 E S S S S S S S S S S S S S S S S S S S S S S


 

 
 |-------------------------------------------------|--------------------------------|
 |-------------------------------------------------|--------------------------------|
 |-------------------------------------------------|--------------------------------|
 |-7----------7------------------------------------|-7--8---8--8-5-8---8---8--------|
 |-------------------0--0---0-----0---0--0--0---0--|-----------------7---5---4-0----|

 


 |


 | S T T T T S S S S S S S S S S S S S S S S S S S S S


 

 
 |-0-(0)-(0)-(0)-(0)-0-(0)-(0)-0-(0)-(0)-0-(0)-(0)-|-0-(0)-(0)----------------------|
 |-------------------9-------------------9-(9)-(9)-|-----------9-9-------9-9--------|
 |-9--9---9---9---9--9--9---9--9--9---9--9--9---9--|-9--9---9--9-9-9-9-9-9-9-9-9----|
 |-------------------------------------------------|--------------------------------|
 |-------------------------------------------------|--------------------------------|

 


 


 E S S S S S S S S S S E S S S S E S S S S


 

 
 |-------------------------------------------------|-----------------------------------------|
 |-------------------------------------------------|-----------------------------------------|
 |-------------------------------------------------|-----------------------------------------|
 |-7----------7------------------------------------|-8------8------------5------5------------|
 |-------------------0--0---0-----0---0--0--0---0--|-----------0--0---0------------0--0---0--|

 


 |


 | S T T T T S S S S S S S S S S S S S S S S S S S S S


 

 
 |-0-(0)-(0)-(0)-(0)-0-(0)-(0)-0-(0)-(0)-0-(0)-(0)-|-0-(0)-(0)-0-(0)-(0)-0-(0)-(0)-0-(0)-(0)-|
 |-------------------9-------------------9-(9)-(9)-|-----------9-(9)-(9)-----------9-(9)--9--|
 |-9--9---9---9---9--9--9---9--9--9---9--9--9---9--|-9--9---9--9--9---9--9--9---9--9--9---9--|
 |-------------------------------------------------|-----------------------------------------|
 |-------------------------------------------------|-----------------------------------------|

 


 


 E S S S S S S S S S S S S S S S S S S S S S S


 

 
 |-------------------------------------------------|--------------------------------------------|
 |-------------------------------------------------|-7-10---7-----7-----------------------------|
 |-------------------------------------------------|-----------9------9--6--9---6-----6---------|
 |-7----------7------------------------------------|-------------------------------8------8-----|
 |-------------------0--0---0-----0---0--0--0---0--|--------------------------------------------|

 


 |


 | S T T T T S S S S S S S S S S S S S S S S S S S S S


 

 
 |-0-(0)-(0)-(0)-(0)-0-(0)-(0)-0-(0)-(0)-0-(0)-(0)-|-3-(3)-(3)-3-(3)-(3)-3-(3)-(3)-3-(3)-(3)----|
 |-------------------9-------------------9-(9)-(9)-|-9-(9)-(9)-9-(9)-(9)-9-(9)-(9)-9-(9)-(9)----|
 |-9--9---9---9---9--9--9---9--9--9---9--9--9---9--|-9--9---9--9--9---9--9--9---9--9--9---9-----|
 |-------------------------------------------------|--------------------------------------------|
 |-------------------------------------------------|--------------------------------------------|

 


 


 E S S S S S S S S S S E S S S S E S S S S


 

 
 |-------------------------------------------------|-----------------------------------------|
 |-------------------------------------------------|-----------------------------------------|
 |-------------------------------------------------|-----------------------------------------|
 |-7----------7------------------------------------|-8------8------------5------5------------|
 |-------------------0--0---0-----0---0--0--0---0--|-----------0--0---0------------0--0---0--|

 


 |


 | S T T T T S S S S S S S S S S S S S S S S S S S S S


 

 
 |-0-(0)-(0)-(0)-(0)-0-(0)-(0)-0-(0)-(0)-0-(0)-(0)-|-0-(0)-(0)-0-(0)-(0)-0-(0)-(0)-0-(0)-(0)-|
 |-------------------9-------------------9-(9)-(9)-|-----------9-(9)-(9)-----------9-(9)--9--|
 |-9--9---9---9---9--9--9---9--9--9---9--9--9---9--|-9--9---9--9--9---9--9--9---9--9--9---9--|
 |-------------------------------------------------|-----------------------------------------|
 |-------------------------------------------------|-----------------------------------------|

 


 


 To Coda


 E S S S S S S S S S S S S S S S S S S S S S S


 

 
 |-------------------------------------------------|---------------------------------------||
 |-------------------------------------------------|---------------------------------------||
 |-------------------------------------------------|---------------------------------------||
 |-7----------7------------------------------------|-7--8---8---8---5---8----8---8---------||
 |-------------------0--0---0-----0---0--0--0---0--|-----------------------7---5---4-0-----||

 


 |


 | S T T T T S S S S S S S S S S S S S S S S S S S S S


 

 
 |-0-(0)-(0)-(0)-(0)-0-(0)-(0)-0-(0)-(0)-0-(0)-(0)-|-0-(0)-(0)-----------------------------||
 |-------------------9-------------------9-(9)-(9)-|-----------(9)-(9)-(9)-9-9-9-9-9-9-----||
 |-9--9---9---9---9--9--9---9--9--9---9--9--9---9--|-9--9---9---9---9---9--9-9-9-9-9-9-----||
 |-------------------------------------------------|---------------------------------------||
 |-------------------------------------------------|---------------------------------------||

 


 


 Chorus


 E. E. E. E. E. E. E. E.


 

 
 |---------------------------------------|--------------------------------------|
 |---------------------------------------|--------------------------------------|
 |---------------------------------------|--------------------------------------|
 |---------------------------------------|--------------------------------------|
 |--5-----------4----------5------0------|-5-----------4----------5------0------|

 


 |


 | S S S S S S S S S S S S S S S S S S S S S S S S


 

 
 |--3--(3)-(3)-(3)-(3)-(3)-3-------------|-3--(3)-(3)-(3)-(3)-(3)---------------|
 |-------------------------9-------------|-------------9----------9------9------|
 |--9---9---9---9---9---9--9--9-9-9--9-9-|-9---9---9---9---9---9--9--9-9-9--9-9-|
 |-11------------------------------------|--------------------------------------|
 |---------------------------------------|--------------------------------------|

 


 


 E. E. E. E. E. E. E. E.


 

 
 |--------------------------------------|-----------------------------------------|
 |--------------------------------------|-----------------------------------------|
 |--------------------------------------|-----------------------------------------|
 |--------------------------------------|-----------------------------------------|
 |-7-----------6----------7------0------|-7-----------6----------7------0---------|

 


 |


 | S S S S S S S S S S S S S S S S S S S S S S S S


 

 
 |-3--(3)-(3)-(3)-(3)-(3)---------------|-3--(3)-(3)-(3)-(3)-(3)------------------|
 |------------------------9-------------|-------------9----------9------9---------|
 |-9---9---9---9---9---9--9--9-9-9--9-9-|-9---9---9---9---9---9--9--9-9-9--9-9----|
 |--------------------------------------|-----------------------------------------|
 |--------------------------------------|-----------------------------------------|

 


 


 E. E. E. E. E. E. E. E.


 

 
 |-----------------------------|--------------------------------------|
 |-----------------------------|--------------------------------------|
 |-----------------------------|--------------------------------------|
 |-----------------------------|--------------------------------------|
 |-5------4------5------0------|-5-----------4----------5------0------|

 


 |


 | S S S S S S S S S S S S S S S S S S S S S S S S


 

 
 |-----------------------------|-3--(3)-(3)-(3)-(3)-(3)---------------|
 |---------------9-------------|-------------9----------9----9-9--9---|
 |-9--9-9-9--9-9-9--9-9-9--9-9-|-9---9---9---9---9---9--9--9-9-9--9-9-|
 |-----------------------------|--------------------------------------|
 |-----------------------------|--------------------------------------|

 


 


 E. E. E. E. E. E. E. E.


 

 
 |-----------------------------|-----------------------------------------||
 |-----------------------------|-----------------------------------------||
 |-----------------------------|-----------------------------------------||
 |-----------------------------|-----------------------------------------||
 |-7------6------7------0------|-7-----------6----------7------0---------||

 


 |


 | S S S S S S S S S S S S S S S S S S S S S S S S


 

 
 |-----------------------------|-3--(3)-(3)-(3)-(3)-(3)------------------||
 |---------------9-------------|-------------9----------9----9-9--9------||
 |-9--9-9-9--9-9-9--9-9-9--9-9-|-9---9---9---9---9---9--9--9-9-9--9-9----||
 |-----------------------------|-----------------------------------------||
 |-----------------------------|-----------------------------------------||

 


 


 Guitar Solo - Smyth


 S S S S S S S S S S S S S S S S S S S S S S S S


 

 
 |---------------------------------|---------------------------------|
 |---------------------------------|---------------------------------|
 |---------------------------------|---------------------------------|
 |---------------------------------|---------------------------------|
 |-5--0--4-5-4-0--5--0--4--5--4--0-|-5--0--4-5-4-0--5--0--4--5--4--0-|

 


 |


 | S S S S S S S S S S S S S S S S S S S S S S S S


 

 
 |-3-(3)---------------------------|-3-(3)---------------------------|
 |-9-------------------------------|-9-------------------------------|
 |-9--9--9-9-9-9--9--9--9--9--9--9-|-9--9--9-9-9-9--9--9--9--9--9--9-|
 |---------------15-15-15-15-15-15-|---------------15-15-15-15-15-15-|
 |---------------------------------|---------------------------------|

 


 


 S S S S S S S S S S S S S S S S S S S S S S S S


 

 
 |---------------------------------|----------------------------------|
 |---------------------------------|----------------------------------|
 |---------------------------------|----------------------------------|
 |---------------------------------|----------------------------------|
 |-7--0--6-7-6-0--7--0--6--7--6--0-|-7--0--6-7-6-0--7--0-6-7--6--0----|

 


 |


 | S S S S S S S S S S S S S S S S S S S S S S S S


 

 
 |-3-(3)---------------------------|-3-(3)----------------------------|
 |-9-------------------------------|-9-------------------9-9----------|
 |-9--9--9-9-9-9--9--9--9--9--9--9-|-9--9--9-9-9-9--9--9-9-9--9--9----|
 |---------------15-15-15-15-15-15-|---------------15-15-----15-15----|
 |---------------------------------|----------------------------------|

 


 


 S S S S S S S S S S S S S S S S S S S S S S S S


 

 
 |---------------------------------|---------------------------------|
 |---------------------------------|---------------------------------|
 |---------------------------------|---------------------------------|
 |---------------------------------|---------------------------------|
 |-5--0--4-5-4-0--5--0--4--5--4--0-|-5--0--4-5-4-0--5--0--4--5--4--0-|

 


 |


 | S S S S S S S S S S S S S S S S S S S S S S S S


 

 
 |-3-(3)---------------------------|-3-(3)---------------------------|
 |-9-------------------------------|-9-------------------------------|
 |-9--9--9-9-9-9--9--9--9--9--9--9-|-9--9--9-9-9-9--9--9--9--9--9--9-|
 |---------------15-15-15-15-15-15-|---------------15-15-15-15-15-15-|
 |---------------------------------|---------------------------------|

 


 


 S S S S S S S S S S S S S S S S S S S S S S S S


 

 
 |---------------------------------|----------------------------------||
 |---------------------------------|----------------------------------||
 |---------------------------------|----------------------------------||
 |---------------------------------|----------------------------------||
 |-7--0--6-7-6-0--7--0--6--7--6--0-|-7--0--6-7-6-0--7--0-6-7--6--0----||

 


 |


 | S S S S S S S S S S S S S S S S S S S S S S S S


 

 
 |-3-(3)---------------------------|-3-(3)----------------------------||
 |-9-------------------------------|-9-------------------9-9----------||
 |-9--9--9-9-9-9--9--9--9--9--9--9-|-9--9--9-9-9-9--9--9-9-9--9--9----||
 |---------------15-15-15-15-15-15-|---------------15-15-----15-15----||
 |---------------------------------|----------------------------------||

 


 


 E. E. E. E. E. E. E. E.


 

 
 |---------------------------------------|--------------------------------------|
 |---------------------------------------|--------------------------------------|
 |---------------------------------------|--------------------------------------|
 |---------------------------------------|--------------------------------------|
 |--5-----------4----------5------0------|-5-----------4----------5------0------|

 


 |


 | S S S S S S S S S S S S S S S S S S S S S S S S


 

 
 |--3--(3)-(3)-(3)-(3)-(3)---------------|-3--(3)-(3)-(3)-(3)-(3)---------------|
 |-------------------------9-------------|-------------9----------9------9------|
 |--9---9---9---9---9---9--9--9-9-9--9-9-|-9---9---9---9---9---9--9--9-9-9--9-9-|
 |-11------------------------------------|--------------------------------------|
 |---------------------------------------|--------------------------------------|

 


 


 E. E. E. E. E. E. E. E.


 

 
 |--------------------------------------|-----------------------------------------|
 |--------------------------------------|-----------------------------------------|
 |--------------------------------------|-----------------------------------------|
 |--------------------------------------|-----------------------------------------|
 |-7-----------6----------7------0------|-7-----------6----------7------0---------|

 


 |


 | S S S S S S S S S S S S S S S S S S S S S S S S


 

 
 |-3--(3)-(3)-(3)-(3)-(3)---------------|-3--(3)-(3)-(3)-(3)-(3)------------------|
 |------------------------9-------------|-------------9----------9------9---------|
 |-9---9---9---9---9---9--9--9-9-9--9-9-|-9---9---9---9---9---9--9--9-9-9--9-9----|
 |--------------------------------------|-----------------------------------------|
 |--------------------------------------|-----------------------------------------|

 


 


 E. E. E. E. E. E. E. E.


 

 
 |----------------------------------------------|---------------------------------------------|
 |----------------------------------------------|---------------------------------------------|
 |----------------------------------------------|---------------------------------------------|
 |----------------------------------------------|---------------------------------------------|
 |--5----------4----------5----------0----------|-5----------4----------5----------0----------|

 


 |


 | S S S S S S S S S S S S S S S S S S S S S S S S


 

 
 |--3--(3)-(3)-3--(3)-(3)-3--(3)-(3)-3--(3)-(3)-|-3--(3)-(3)-3--(3)-(3)-3--(3)-(3)-3--(3)-(3)-|
 |-------------9---------------------9----------|------------9---------------------9----------|
 |--9---9---9--9---9---9--9---9---9--9---9---9--|-9---9---9--9---9---9--9---9---9--9---9---9--|
 |-11-------------------------------------------|---------------------------------------------|
 |----------------------------------------------|---------------------------------------------|

 


 


 D.S. al Coda


 E. E. E. E. E. E. E. E.


 

 
 |---------------------------------------------|------------------------------------------------||
 |---------------------------------------------|------------------------------------------------||
 |---------------------------------------------|------------------------------------------------||
 |---------------------------------------------|------------------------------------------------||
 |-7----------6----------7----------0----------|-7----------6----------7----------0-------------||

 


 |


 | S S S S S S S S S S S S S S S S S S S S S S S S


 

 
 |-3--(3)-(3)-3--(3)-(3)-3--(3)-(3)-3--(3)-(3)-|-3--(3)-(3)-3--(3)-(3)-3--(3)-(3)-3--(3)-(3)----||
 |------------9---------------------9----------|------------9---------------------9-------------||
 |-9---9---9--9---9---9--9---9---9--9---9---9--|-9---9---9--9---9---9--9---9---9--9---9---9-----||
 |---------------------------------------------|------------------------------------------------||
 |---------------------------------------------|------------------------------------------------||

 


 


 &


 S S S S S S S S S S S S S S S S S S S S S S S S


 

 
 |---------------------------------|---------------------------------|
 |---------------------------------|---------------------------------|
 |---------------------------------|---------------------------------|
 |---------------------------------|---------------------------------|
 |-5--0--4-5-4-0--5--0--4--5--4--0-|-5--0--4-5-4-0--5--0--4--5--4--0-|

 


 |


 | S S S S S S S S S S S S S S S S S S S S S S S S


 

 
 |-3-(3)---------------------------|-3-(3)---------------------------|
 |-9-------------------------------|-9-------------------------------|
 |-9--9--9-9-9-9--9--9--9--9--9--9-|-9--9--9-9-9-9--9--9--9--9--9--9-|
 |---------------15-15-15-15-15-15-|---------------15-15-15-15-15-15-|
 |---------------------------------|---------------------------------|

 


 


 S S S S S S S S S S S S S S S S S S S S S S S S


 

 
 |---------------------------------|----------------------------------|
 |---------------------------------|----------------------------------|
 |---------------------------------|----------------------------------|
 |---------------------------------|----------------------------------|
 |-7--0--6-7-6-0--7--0--6--7--6--0-|-7--0--6-7-6-0--7--0-6-7--6--0----|

 


 |


 | S S S S S S S S S S S S S S S S S S S S S S S S


 

 
 |-3-(3)---------------------------|-3-(3)----------------------------|
 |-9-------------------------------|-9-------------------9-9----------|
 |-9--9--9-9-9-9--9--9--9--9--9--9-|-9--9--9-9-9-9--9--9-9-9--9--9----|
 |---------------15-15-15-15-15-15-|---------------15-15-----15-15----|
 |---------------------------------|----------------------------------|

 


 


 S S S S S S S S S S S S S S S S S S S S S S S S


 

 
 |---------------------------------|---------------------------------|
 |---------------------------------|---------------------------------|
 |---------------------------------|---------------------------------|
 |---------------------------------|---------------------------------|
 |-5--0--4-5-4-0--5--0--4--5--4--0-|-5--0--4-5-4-0--5--0--4--5--4--0-|

 


 |


 | S S S S S S S S S S S S S S S S S S S S S S S S


 

 
 |-3-(3)---------------------------|-3-(3)---------------------------|
 |-9-------------------------------|-9-------------------------------|
 |-9--9--9-9-9-9--9--9--9--9--9--9-|-9--9--9-9-9-9--9--9--9--9--9--9-|
 |---------------15-15-15-15-15-15-|---------------15-15-15-15-15-15-|
 |---------------------------------|---------------------------------|

 


 


 S S S S S S S S S S S S S S S S S S S S S S S S


 

 
 |---------------------------------|----------------------------------||
 |---------------------------------|----------------------------------||
 |---------------------------------|----------------------------------||
 |---------------------------------|----------------------------------||
 |-7--0--6-7-6-0--7--0--6--7--6--0-|-7--0--6-7-6-0--7--0-6-7--6--0----||

 


 |


 | S S S S S S S S S S S S S S S S S S S S S S S S


 

 
 |-3-(3)---------------------------|-3-(3)----------------------------||
 |-9-------------------------------|-9-------------------9-9----------||
 |-9--9--9-9-9-9--9--9--9--9--9--9-|-9--9--9-9-9-9--9--9-9-9--9--9----||
 |---------------15-15-15-15-15-15-|---------------15-15-----15-15----||
 |---------------------------------|----------------------------------||

 


 


 E. E. E. E. E. E. E. E.


 

 
 |------------------------------------------------|-----------------------------------------------|
 |------------------------------------------------|-----------------------------------------------|
 |------------------------------------------------|-----------------------------------------------|
 |------------------------------------------------|-----------------------------------------------|
 |--5-----------4----------5-----------0----------|-5-----------4----------5-----------0----------|

 


 |


 | S S S S S S S S S S S S S S S S S S S S S S S S


 

 
 |--3--(3)-(3)-(3)-(3)-(3)-3--(3)-(3)-(3)-(3)-(3)-|-3--(3)-(3)-(3)-(3)-(3)-3--(3)-(3)-(3)-(3)-(3)-|
 |-------------------------9----------------------|-------------9----------9-----------9----------|
 |--9---9---9---9---9---9--9---9---9---9---9---9--|-9---9---9---9---9---9--9---9---9---9---9---9--|
 |-11---------------------------------------------|-----------------------------------------------|
 |------------------------------------------------|-----------------------------------------------|

 


 


 E. E. E. E. E. E. E. E.


 

 
 |-----------------------------------------------|--------------------------------------------------|
 |-----------------------------------------------|--------------------------------------------------|
 |-----------------------------------------------|--------------------------------------------------|
 |-----------------------------------------------|--------------------------------------------------|
 |-7-----------6----------7-----------0----------|-7-----------6----------7-----------0-------------|

 


 |


 | S S S S S S S S S S S S S S S S S S S S S S S S


 

 
 |-3--(3)-(3)-(3)-(3)-(3)-3--(3)-(3)-(3)-(3)-(3)-|-3--(3)-(3)-(3)-(3)-(3)-3--(3)-(3)-(3)-(3)-(3)----|
 |------------------------9----------------------|-------------9----------9-----------9---9---9-----|
 |-9---9---9---9---9---9--9---9---9---9---9---9--|-9---9---9---9---9---9--9---9---9---9---9---9-----|
 |-----------------------------------------------|--------------------------------------------------|
 |-----------------------------------------------|--------------------------------------------------|

 


 


 E. E. E. E. E. E. E. E.


 

 
 |----------------------------------------------|---------------------------------------------|
 |----------------------------------------------|---------------------------------------------|
 |----------------------------------------------|---------------------------------------------|
 |----------------------------------------------|---------------------------------------------|
 |--5----------4----------5----------0----------|-5----------4----------5----------0----------|

 


 |


 | S S S S S S S S S S S S S S S S S S S S S S S S


 

 
 |--3--(3)-(3)-3--(3)-(3)-3--(3)-(3)-3--(3)-(3)-|-3--(3)-(3)-3--(3)-(3)-3--(3)-(3)-3--(3)-(3)-|
 |-------------9---------------------9----------|------------9---------------------9----------|
 |--9---9---9--9---9---9--9---9---9--9---9---9--|-9---9---9--9---9---9--9---9---9--9---9---9--|
 |-11-------------------------------------------|---------------------------------------------|
 |----------------------------------------------|---------------------------------------------|


Important: The song above is NOT stored on the Chordie server. The original song is hosted at www.guitaretab.com. Chordie works as a search engine and provides on-the-fly formatting. Chordie does not index songs against artists'/composers' will. To remove this song please click here.

This song is displayed as text-only. Transposing and tuning is only available for chordpro-songs.
Rate #1 of 1 versions

Login - add to songbook

SHARE PAGE  



You need to log in to post comments