Guitar Tabs, Chords and Lyrics
Server problems seems to be fixed. Chordie has been experiencing problems with songs disappearing. These issues now seems to be fixed, but still verifying the fix. If you find anything strange, please email admin@chordie.com.


We Disintegrate  Nevermore

As recorded by Nevermore
(From the 2001 Album DEAD HEART IN A DEAD WORLD)
Transcribed by unregistered
Words by Warrel Dane Music by Jeff Loomis
Arranged by Nevermore
Gtr I (A# D# G# C# F# A# D#) - 'Guitar I'
Gtr II (A# D# G# C# F# A# D#) - 'Guitar II'
Gtr III (A# D# G# C# F# A# D#) - 'Guitar III'
Q=170
[4/4] Gtrs I, II
PM| PM| PM--| PM| PM PM| PM| PM--| PM| PM
[E] [E] [E] [E] [E] [E] [E] [E] [E] [E] [E] [E] [E] [E] [E] [E] [E] [E] [E] [E] [E] [E] [E] [E] [E] [E] [E] [E] [E] [E] [E] [E]  
 
 ||------------------|-----------------|-----------------|-----------------|
 ||------------------|-----------------|-----------------|-----------------|
 ||o-----------------|-----------------|-----------------|-----------------|
 ||--8-----8-----8---|---8-----8---8-9-|-6-----6-----6---|---6-----6---6-5-|
 ||o-7-----7-----7---|---7-----7---7-7-|-7-----7-----7---|---7-----7---7-7-|
 ||----0-0---0-0---0-|-0---0-0---0-----|---0-0---0-0---0-|-0---0-0---0-----|
 ||------------------|-----------------|-----------------|-----------------|

PM| PM| PM--| PM| PM PM| PM| PM--|
[E] [E] [E] [E] [E] [E] [E] [E] [E] [E] [E] [E] [E] [E] [E] [E] [E] [E] [E] [E] [E] [E] [E] [E] [E] [E] [E] [E] [E] [E] [E] [E]  
 
 |-----------------|-----------------|-----------------|------------------||
 |-----------------|-----------------|-----------------|------------------||
 |-----------------|-----------------|-----------------|-----------------o||
 |-8-----8-----8---|---8-----8---8-9-|-6-----6-----6---|---9-9-9-9-9-9-9--||
 |-7-----7-----7---|---7-----7---7-7-|-7-----7-----7---|---7-7-7-7-7-7-7-o||
 |---0-0---0-0---0-|-0---0-0---0-----|---0-0---0-0---0-|-0---0-0-0-0-0-0--||
 |-----------------|-----------------|-----------------|------------------||

Gtr I
[E] [E] [E] [E] [E] [E] [E] [E] [E] [E] [E] [E] [E] [E] [E] [E]  
 
 |-18-------18-------18----|----18-------18----18-19-|
 |----17-------17-------17-|-------17-------17-------|
 |-------15-------15-------|-15-------15-------------|
 |-------------------------|-------------------------|
 |-------------------------|-------------------------|
 |-------------------------|-------------------------|
 |-------------------------|-------------------------|

|
| Gtr II
| PM| PM| PM--| PM| PM
| E E E E E E E E E E E E E E E E
 
 |-------------------------|-------------------------|
 |-------------------------|-------------------------|
 |-------------------------|-------------------------|
 |--8--------8--------8----|-----8--------8-----8--9-|
 |--7--------7--------7----|-----7--------7-----7--7-|
 |-----0--0-----0--0-----0-|--0-----0--0-----0-------|
 |-------------------------|-------------------------|

~~
E E E E E E E E E E E E E E Q
 
 |-------------------------|------------------------|
 |-21-17----21-17----21-17-|----17------------------|
 |-------16-------16-------|-16----16----16---------|
 |-------------------------|----------18----18-14---|
 |-------------------------|------------------------|
 |-------------------------|------------------------|
 |-------------------------|------------------------|

|
| PM| PM| PM--| PM| PM
| E E E E E E E E E E E E E E E E
 
 |-------------------------|------------------------|
 |-------------------------|------------------------|
 |-------------------------|------------------------|
 |--6--------6--------6----|-----6--------6-----6-5-|
 |--7--------7--------7----|-----7--------7-----7-7-|
 |-----0--0-----0--0-----0-|--0-----0--0-----0------|
 |-------------------------|------------------------|

[E] [E] [E] [E] [E] [E] [E] [E] [E] [E] [E] [E] [E] [E] [E] [E]  
 
 |-18-------18-------18----|----18-------18----18-19-|
 |----17-------17-------17-|-------17-------17-------|
 |-------15-------15-------|-15-------15-------------|
 |-------------------------|-------------------------|
 |-------------------------|-------------------------|
 |-------------------------|-------------------------|
 |-------------------------|-------------------------|

|
| PM| PM| PM--| PM| PM
| E E E E E E E E E E E E E E E E
 
 |-------------------------|-------------------------|
 |-------------------------|-------------------------|
 |-------------------------|-------------------------|
 |--8--------8--------8----|-----8--------8-----8--9-|
 |--7--------7--------7----|-----7--------7-----7--7-|
 |-----0--0-----0--0-----0-|--0-----0--0-----0-------|
 |-------------------------|-------------------------|

~~
E E E E E E E E E E E E E E Q
 
 |-------------------------|------------------------|
 |-21-17----21-17----21-17-|----17------------------|
 |-------16-------16-------|-16----16----16---------|
 |-------------------------|----------18----18-14---|
 |-------------------------|------------------------|
 |-------------------------|------------------------|
 |-------------------------|------------------------|

|
| PM| PM| PM--|
| E E E E E E E E E E E E E E E E
 
 |-------------------------|------------------------|
 |-------------------------|------------------------|
 |-------------------------|------------------------|
 |--6--------6--------6----|-----9--9--9--9--9--9-9-|
 |--7--------7--------7----|-----7--7--7--7--7--7-7-|
 |-----0--0-----0--0-----0-|--0-----0--0--0--0--0-0-|
 |-------------------------|------------------------|

~~~~~~~~~~~~~~~
E E E E E E Q +W
 
 ||-----------------------------|--------------------|
 ||--14----------14----14b16====|=(14)---------------|
 ||o----13----13----13----------|--------------------|
 ||--------11-------------------|--------------------|
 ||o----------------------------|--------------------|
 ||-----------------------------|--------------------|
 ||-----------------------------|--------------------|

|
| PM| PM| PM----| PM| PM|
| E E E E E E E E E E E E E E E E
 
 ||-----------------------------|--------------------|
 ||-----------------------------|--------------------|
 ||o----------------------------|--------------------|
 ||-----------------------------|--------------------|
 ||o--------4--------4----------|---5------5-----5-4-|
 ||-----------------------------|--------------------|
 ||---0--2-----0--2-----0-----2-|------0-2---0-2-----|

~~~~~~~~~~~~~~~
E E E E E E Q +W
 
 |----------------------------|---------------------|
 |-14----------14-------------|---------------------|
 |----13----13-------12b13====|=(12)----------------|
 |-------11-------11----------|---------------------|
 |----------------------------|---------------------|
 |----------------------------|---------------------|
 |----------------------------|---------------------|

|
| PM| PM| PM----| PM| PM|
| E E E E E E E E E E E E E E E E
 
 |----------------------------|---------------------|
 |----------------------------|---------------------|
 |----------------------------|---------------------|
 |----------------------------|---------------------|
 |--------4--------4----------|---------------------|
 |----------------------------|---3------3-----3-4--|
 |--0--2-----0--2-----0-----2-|------0-2---0-2------|

~~~~~~~~~~~~~~~
E E E E E E Q +W
 
 |----------------------------|--------------------|
 |-14----------14----14b16====|=(14)---------------|
 |----13----13----13----------|--------------------|
 |-------11-------------------|--------------------|
 |----------------------------|--------------------|
 |----------------------------|--------------------|
 |----------------------------|--------------------|

|
| PM| PM| PM----| PM| PM|
| E E E E E E E E E E E E E E E E
 
 |----------------------------|--------------------|
 |----------------------------|--------------------|
 |----------------------------|--------------------|
 |----------------------------|--------------------|
 |--------4--------4----------|---5------5-----5-4-|
 |----------------------------|--------------------|
 |--0--2-----0--2-----0-----2-|------0-2---0-2-----|

~~~~~~~~~~~~~~~~~~
E E E E E E Q H H
 
 |------------------------|--------------------||
 |-14----------14----18---|-20-------21--------||
 |----13----13------------|-------------------o||
 |-------11-------11------|--------------------||
 |------------------------|-------------------o||
 |------------------------|--------------------||
 |------------------------|--------------------||

|
| PM| PM| PM| PM| PM|
| E E E E E E E E E E E E E E E E
 
 |------------------------|--------------------||
 |------------------------|--------------------||
 |------------------------|-------------------o||
 |------------------------|--3-----3------3-5--||
 |--------4--------4------|-------------------o||
 |------------------------|--------------------||
 |--0--2-----0--2-----0-2-|----0-2----0-2------||

[4/4] ~~~~~~~~~~~[3/4]~~~ ~~~~ [4/4] ~~~~~~~~~~~[3/4]~~~ ~~~~~
Q Q Q Q Q Q E E Q Q Q Q Q Q E E
 
 ||-----------------|-----------|----------------|--------------||
 ||-----------------|-----------|----------------|--------------||
 ||o----------------|-----------|----------------|-------------o||
 ||-----------------|-----------|----------------|--------------||
 ||o-----11--10--9--|-8-----6S4-|-----11--10--9--|-8-----12S14-o||
 ||-----------------|-----------|----------------|--------------||
 ||-----------------|-----------|----------------|--------------||

|
| E E Q Q Q Q Q E E E E Q Q Q Q Q E E
 
 ||-----------------|-----------|----------------|--------------||
 ||-----------------|-----------|----------------|--------------||
 ||o----------------|-----------|----------------|-------------o||
 ||-----------------|-----------|----------------|--------------||
 ||o-----11--10--9--|-8-----6S5-|-----11--10--9--|-8-----12S14-o||
 ||--x-x-11--10--9--|-8-----4S3-|-x-x-11--10--9--|-8-----10S12--||
 ||--x-x--9---8--7--|-6--0--4S3-|-x-x--9---8--7--|-6--0--10S12--||

[4/4] W +W
 
 |----------|--------|
 |----------|--------|
 |----------|--------|
 |----------|--------|
 |-2--------|-(2)----|
 |-2--------|-(2)----|
 |-0--------|-(0)----|

Q=170
[4/4] Gtrs I, II
PM| PM| PM--| PM| PM PM| PM| PM--| PM| PM
[E] [E] [E] [E] [E] [E] [E] [E] [E] [E] [E] [E] [E] [E] [E] [E] [E] [E] [E] [E] [E] [E] [E] [E] [E] [E] [E] [E] [E] [E] [E] [E]  
 
 |-----------------|-----------------|-----------------|------------------|
 |-----------------|-----------------|-----------------|------------------|
 |-----------------|-----------------|-----------------|------------------|
 |-8-----8-----8---|---8-----8---8-9-|-6-----6-----6---|---6-----6---6-5--|
 |-7-----7-----7---|---7-----7---7-7-|-7-----7-----7---|---7-----7---7-7--|
 |---0-0---0-0---0-|-0---0-0---0-----|---0-0---0-0---0-|-0---0-0---0------|
 |-----------------|-----------------|-----------------|------------------|

PM| PM| PM--| PM| PM PM| PM| PM--|
[E] [E] [E] [E] [E] [E] [E] [E] [E] [E] [E] [E] [E] [E] [E] [E] [E] [E] [E] [E] [E] [E] [E] [E] [E] [E] [E] [E] [E] [E] [E] [E]  
 
 |-----------------|-----------------|-----------------|-----------------|
 |-----------------|-----------------|-----------------|-----------------|
 |-----------------|-----------------|-----------------|-----------------|
 |-8-----8-----8---|---8-----8---8-9-|-6-----6-----6---|---9-9-9-9-9-9-9-|
 |-7-----7-----7---|---7-----7---7-7-|-7-----7-----7---|---7-7-7-7-7-7-7-|
 |---0-0---0-0---0-|-0---0-0---0-----|---0-0---0-0---0-|-0---0-0-0-0-0-0-|
 |-----------------|-----------------|-----------------|-----------------|

$
PM| PM| PM| PM| PM| PM| PM| PM| PM| PM|
[E] [E] [E] [E] [E] [E] [E] [E] [E] [E] [E] [E] [E] [E] [E] [E] [E] [E] [E] [E] [E] [E] [E] [E] [E] [E] [E] [E] [E] [E] [E] [E]  
 
 ||------------------|-----------------|-----------------|------------------|
 ||------------------|-----------------|-----------------|------------------|
 ||o-----------------|-----------------|-----------------|------------------|
 ||------------------|-----------------|-----------------|------------------|
 ||o-----4-----4-----|-5-----5-----5-4-|-----4-----4-----|------------------|
 ||------------------|-----------------|-----------------|-3-----3-----3-4--|
 ||--0-2---0-2---0-2-|---0-2---0-2-----|-0-2---0-2---0-2-|---0-2---0-2------|

PM| PM| PM| PM| PM| PM| PM| PM| PM| PM|
[E] [E] [E] [E] [E] [E] [E] [E] [E] [E] [E] [E] [E] [E] [E] [E] [E] [E] [E] [E] [E] [E] [E] [E] [E] [E] [E] [E] [E] [E] [E] [E]  
 
 |-----------------|-----------------|-----------------|------------------||
 |-----------------|-----------------|-----------------|------------------||
 |-----------------|-----------------|-----------------|-----------------o||
 |-----------------|-----------------|-----------------|-3-----3-----3-5--||
 |-----4-----4-----|-5-----5-----5-4-|-----4-----4-----|-----------------o||
 |-----------------|-----------------|-----------------|------------------||
 |-0-2---0-2---0-2-|---0-2---0-2-----|-0-2---0-2---0-2-|---0-2---0-2------||

[4/4] E E Q Q Q [3/4] Q Q E E [4/4] E E Q Q Q [3/4] Q Q E E
 
 ||-----------------|-----------|----------------|--------------||
 ||-----------------|-----------|----------------|--------------||
 ||o----------------|-----------|----------------|-------------o||
 ||-----------------|-----------|----------------|--------------||
 ||o-----11--10--9--|-8-----6S5-|-----11--10--9--|-8-----12S14-o||
 ||--x-x-11--10--9--|-8-----4S3-|-x-x-11--10--9--|-8-----10S12--||
 ||--x-x--9---8--7--|-6--0--4S3-|-x-x--9---8--7--|-6--0--10S12--||

Q=110
[4/4] Gtr I
 
 |--3--| |---3---| |--3--| |--3--|

[E] [E] [E] [E] [E] [E] [E] [E] [E] [E] [E] [E]  
 
 ||--16-------16---------16-------15-------|
 ||-----17-------17---------17-------17----|
 ||o-------16---------16-------16-------16-|
 ||----------------------------------------|
 ||o---------------------------------------|
 ||----------------------------------------|
 ||----------------------------------------|

|
| Gtr II
| PM---|
| Q E E H
 
 ||----------------------------------------|
 ||----------------------------------------|
 ||o---------------------------------------|
 ||---2-------------------2----------------|
 ||o--2-------------------2----------------|
 ||---0--------0----0-----0----------------|
 ||----------------------------------------|
 |--3--| |---3---| |--3--| |--3--|

[E] [E] [E] [E] [E] [E] [E] [E] [E] [E] [E] [E]  
 
 |-16-------16---------16-------15--------||
 |----17-------17---------17-------17-----||
 |-------16---------16-------16-------16-o||
 |----------------------------------------||
 |---------------------------------------o||
 |----------------------------------------||
 |----------------------------------------||

|
| PM---|
| Q E E H
 
 |----------------------------------------||
 |----------------------------------------||
 |--5-------------------5----------------o||
 |--5-------------------5-----------------||
 |--3--------3----3-----3----------------o||
 |----------------------------------------||
 |----------------------------------------||
 |--3--| |---3---| |--3--| |--3--|

[E] [E] [E] [E] [E] [E] [E] [E] [E] [E] [E] [E]  
 
 ||--12-------12---------12-------12-------|
 ||-----14-------14---------14-------14----|
 ||o-------13---------13-------14-------14-|
 ||----------------------------------------|
 ||o---------------------------------------|
 ||----------------------------------------|
 ||----------------------------------------|

|
| PM---|
| Q E E H
 
 ||----------------------------------------|
 ||----------------------------------------|
 ||o---------------------------------------|
 ||---6-------------------6----------------|
 ||o--6-------------------6----------------|
 ||---4--------4----4-----4----------------|
 ||----------------------------------------|
 |--3--| |---3---| |--3--| |--3--|

[E] [E] [E] [E] [E] [E] [E] [E] [E] [E] [E] [E]  
 
 |-12-------12---------12-------12---------||
 |----14-------14---------14-------14------||
 |-------13---------13-------14-------14--o||
 |-----------------------------------------||
 |----------------------------------------o||
 |-----------------------------------------||
 |-----------------------------------------||

|
| PM---|
| Q E E H
 
 |-----------------------------------------||
 |-----------------------------------------||
 |----------------------------------------o||
 |--7-------------------7------------------||
 |--7-------------------7-----------------o||
 |--5--------5----5-----5------------------||
 |-----------------------------------------||
 |--3--| |---3---| |--3--| |--3--|

[E] [E] [E] [E] [E] [E] [E] [E] [E] [E] [E] [E]  
 
 ||--16-------16---------16-------15-------|
 ||-----17-------17---------17-------17----|
 ||o-------16---------16-------16-------16-|
 ||----------------------------------------|
 ||o---------------------------------------|
 ||----------------------------------------|
 ||----------------------------------------|

|
| PM---|
| Q E E H
 
 ||----------------------------------------|
 ||----------------------------------------|
 ||o---------------------------------------|
 ||---2-------------------2----------------|
 ||o--2-------------------2----------------|
 ||---0--------0----0-----0----------------|
 ||----------------------------------------|
 |--3--| |---3---| |--3--| |--3--|

[E] [E] [E] [E] [E] [E] [E] [E] [E] [E] [E] [E]  
 
 |-16-------16---------16-------15---------||
 |----17-------17---------17-------17------||
 |-------16---------16-------16-------16--o||
 |-----------------------------------------||
 |----------------------------------------o||
 |-----------------------------------------||
 |-----------------------------------------||

|
| PM---|
| Q E E H
 
 |-----------------------------------------||
 |-----------------------------------------||
 |--5-------------------5-----------------o||
 |--5-------------------5------------------||
 |--3--------3----3-----3-----------------o||
 |-----------------------------------------||
 |-----------------------------------------||
 |--3--| |---3---| |--3--| |--3--|

[E] [E] [E] [E] [E] [E] [E] [E] [E] [E] [E] [E]  
 
 ||--12-------12---------12-------12-------|
 ||-----14-------14---------14-------14----|
 ||o-------13---------13-------14-------14-|
 ||----------------------------------------|
 ||o---------------------------------------|
 ||----------------------------------------|
 ||----------------------------------------|

|
| PM---|
| Q E E H
 
 ||----------------------------------------|
 ||----------------------------------------|
 ||o---------------------------------------|
 ||---6-------------------6----------------|
 ||o--6-------------------6----------------|
 ||---4--------4----4-----4----------------|
 ||----------------------------------------|

1.
 
 |--3--| |---3---| |--3--| |--3--|

[E] [E] [E] [E] [E] [E] [E] [E] [E] [E] [E] [E]  
 
 |-12-------12---------12-------12---------||
 |----14-------14---------14-------14------||
 |-------13---------13-------14-------14--o||
 |-----------------------------------------||
 |----------------------------------------o||
 |-----------------------------------------||
 |-----------------------------------------||

|
| PM---|
| Q E E H
 
 |-----------------------------------------||
 |-----------------------------------------||
 |----------------------------------------o||
 |--7-------------------7------------------||
 |--7-------------------7-----------------o||
 |--5--------5----5-----5------------------||
 |-----------------------------------------||

2.
To Coda
 
 |--3--| |---3---| |--3--| |--3--|

[E] [E] [E] [E] [E] [E] [E] [E] [E] [E] [E] [E]  
 
 |-12-------12---------12-------12-------|
 |----14-------14---------14-------14----|
 |-------13---------13-------14-------14-|
 |---------------------------------------|
 |---------------------------------------|
 |---------------------------------------|
 |---------------------------------------|

|
| PM---|
| Q E E H
 
 |---------------------------------------|
 |---------------------------------------|
 |---------------------------------------|
 |--7-------------------7----------------|
 |--7-------------------7----------------|
 |--5--------5----5-----5----------------|
 |---------------------------------------|

Q=170
~~
W Q E E E E E E
 
 |---------------------|-------------------19----|
 |-15b17r==============|=15-------17----17----17-|
 |---------------------|------/16----16----------|
 |---------------------|-------------------------|
 |---------------------|-------------------------|
 |---------------------|-------------------------|
 |---------------------|-------------------------|

|
| PM| PM| PM--| PM| PM
| E E E E E E E E E E E E E E E E
 
 |---------------------|-------------------------|
 |---------------------|-------------------------|
 |---------------------|-------------------------|
 |--8--------8-----8---|----8---------8-----8--9-|
 |--7--------7-----7---|----7---------7-----7--7-|
 |-------0-0---0-0---0-|--0-----0--0-----0-------|
 |---------------------|-------------------------|

~~~~~~~
E E +Q E E E E W
 
 |----18-(18)------------19-|-22b24r==============|
 |--------------19-20-21----|---------------------|
 |-16-----------------------|---------------------|
 |--------------------------|---------------------|
 |--------------------------|---------------------|
 |--------------------------|---------------------|
 |--------------------------|---------------------|

|
| PM| PM| PM--| PM| PM
| E E E E E E E E E E E E E E E E
 
 |--------------------------|---------------------|
 |--------------------------|---------------------|
 |--------------------------|---------------------|
 |--6---------6--------6----|-------6-----6---6-5-|
 |--7---------7--------7----|-------7-----7---7-7-|
 |-----0---0-----0--0-----0-|--0------0-0---0-----|
 |--------------------------|---------------------|

S S S S S S S S S S S S S S S S
 
 |----15-17-19-17-15-17-19S22-20-19-20-19-------19-|
 |-19-------------------------------------22-20----|
 |-------------------------------------------------|
 |-------------------------------------------------|
 |-------------------------------------------------|
 |-------------------------------------------------|
 |-------------------------------------------------|

|
 
 | PM---| PM---| PM----

| E E E E E E E E
 
 |-------------------------------------------------|
 |-------------------------------------------------|
 |-------------------------------------------------|
 |--8-----------------8-----------------8----------|
 |--7-----------------7-----------------7----------|
 |--------0-----0-----------0-----0-----------0----|
 |-------------------------------------------------|

S S S S S S S S S S S S S S S S
 
 |-------------------------------------------------|
 |-22-20-19----------------------------------------|
 |----------19-17-16-------------------------------|
 |-------------------19-17-16----------------16-17-|
 |----------------------------19-17-15-17-19-------|
 |-------------------------------------------------|
 |-------------------------------------------------|

|
|-| PM---| PM
| E E E E E E E E
 
 |-------------------------------------------------|
 |-------------------------------------------------|
 |-------------------------------------------------|
 |--------8-----------------8-----------8-----9----|
 |--------7-----------------7-----------7-----7----|
 |--0-----------0-----0-----------0----------------|
 |-------------------------------------------------|

D.S. al Coda
~~~~~~~~~~~~~~~~~~~~~~~~~~~~~
S S S S +H. +W
 
 |--------------------------------|----------------------|
 |--------------------------------|----------------------|
 |----------[16]-([16])-----------|-([16])---------------|
 |-19-17-16-----------------------|----------------------|
 |--------------------------------|----------------------|
 |--------------------------------|----------------------|
 |--------------------------------|----------------------|

|
 
 | PM-----| PM| PM--|

| E E E E E E E E E E E E E E E E
 
 |--------------------------------|----------------------|
 |--------------------------------|----------------------|
 |--------------------------------|----------------------|
 |--6-------------------6-----6---|--------9-9-9-9-9-9-9-|
 |--7-------------------7-----7---|--------7-7-7-7-7-7-7-|
 |--------0---------0-----0-0---0-|----0-----0-0-0-0-0-0-|
 |--------------------------------|----------------------|

&
[4/4] E E Q Q Q [3/4] Q Q E E [4/4] E E Q Q Q [3/4] Q Q E E 6x
 
 ||-----------------|-----------|----------------|--------------||
 ||-----------------|-----------|----------------|--------------||
 ||o----------------|-----------|----------------|-------------o||
 ||-----------------|-----------|----------------|--------------||
 ||o-----11--10--9--|-8-----6S5-|-----11--10--9--|-8-----12S14-o||
 ||--x-x-11--10--9--|-8-----4S3-|-x-x-11--10--9--|-8-----10S12--||
 ||--x-x--9---8--7--|-6--0--4S3-|-x-x--9---8--7--|-6--0--10S12--||

[4/4] W
 
 |------*|
 |------*|
 |------*|

|-2----*|
|-2----*|
|-0----*|
 
 |------*|

Duration Legend
 
 ---------------
 W - whole; H - half; Q - quarter; E - 8th; S - 16th; T - 32nd; X - 64th; a - acciaccatura

+ - note tied to previous; . - note dotted; .. - note double dotted
Uncapitalized letters represent notes that are staccato (1/2 duration)
Irregular groupings are notated above the duration line
Duration letters will always appear directly above the note/fret number it represents the
duration for. Duration letters with no fret number below them represent rests. Multi-
bar rests are notated in the form Wxn, where n is the number of bars to rest for. Low
melody durations appear below the staff
Tablature Legend
 
 ----------------

h - hammer-on
p - pull-off
b - bend
pb - pre-bend
r - bend release (if no number after the r, then release immediately)
/\ - slide into or out of (from/to "nowhere")
s - legato slide
S - shift slide
- natural harmonic
(n) - artificial harmonic
n(n) - tapped harmonic
~ - vibrato
tr - trill
T - tap
TP - trem. picking
PM - palm muting
\n/ - tremolo bar dip; n = amount to dip
\n - tremolo bar down
n/ - tremolo bar up
/n\ - tremolo bar inverted dip
= - hold bend; also acts as connecting device for hammers/pulls
- volume swell (louder/softer)
x - on rhythm slash represents muted slash
o - on rhythm slash represents single note slash
Misc Legend
 
 -----------

| - bar
|| - double bar
||o - repeat start
o|| - repeat end
*| - double bar (ending)
: - bar (freetime)
$ - Segno
& - Coda
Tempo markers - = BPM(8/16=s8/s16), where s8 = swing 8ths, s16 = swing 16ths

Important: The song above is NOT stored on the Chordie server. The original song is hosted at www.guitaretab.com. Chordie works as a search engine and provides on-the-fly formatting. Chordie does not index songs against artists'/composers' will. To remove this song please click here.

Text color:
Chord color:
Chord grids: 
Font size:    
Page size: 

E
Rate #1 of 2 versions

Login - add to songbook

SHARE PAGE  




You need to log in to post comments