Guitar Tabs, Chords and Lyrics
Server problems seems to be fixed. Chordie has been experiencing problems with songs disappearing. These issues now seems to be fixed, but still verifying the fix. If you find anything strange, please email admin@chordie.com.


Precognition   Nevermore

 
 |7-77-7-77-7-77-7-7777-7-77-7-77-7-77-7--2--------------------------|
 |7-77-7-77-7-77-7-7777-7-77-7-77-7-77-7--2--------------------------|
 |8-88-8-88-8-88-8-8888-8-88-8-88-8-88-8--3--------------------------|
 |9-99-9-99-9-99-9-9999-9-99-9-99-9-99-9--4--------------------------|
 |9-99-9-99-9-99-9-9999-9-99-9-99-9-99-9--4--------------------------|
 |7-77-7-77-7-77-7-7777-7-77-7-77-7-77-7--2--------------------------|

 


 


 Guitar 2: Electric-Small bit of echo


 

 
 |------------------[7]~---------------------------------------------|
 |------------------[7]~---------------------------------------------|
 |------------------[7]~---------------------------------------------|
 |-------------------------------------------------------------------|
 |--Artificial Harms-^-----------------------------------------------|
 |-------------------------------------------------------------------|

 


 


 1.Acoustic:


 

 
 |7-77-7-77-7-77-7-7777-7-77-7-77-7----------------------------------|
 |7-77-7-77-7-77-7-7777-7-77-7-77-7----------------------------------|
 |8-88-8-88-8-88-8-8888-8-88-8-88-8----------------------------------|
 |9-99-9-99-9-99-9-9999-9-99-9-99-9----------------------------------|
 |9-99-9-99-9-99-9-9999-9-99-9-99-9----------------------------------|
 |7-77-7-77-7-77-7-7777-7-77-7-77-7----------------------------------|

 


 


 2.Electric:


 

 
 |------------------------------[7]~---------------------------------|
 |------------------------------[7]~---------------------------------|
 |------------------------------[7]~---------------------------------|
 |-------------------------------------------------------------------|
 |-------------------------------------------------------------------|
 |-------------------------------------------------------------------|

 


 


 | I've spaced out the chords in the rythm so you can maybe get a |


 |better feel of it, listen to the song and match speed with the solo|


 


 Riff 1


 

 
 |7--7-7--7--7-7--7--7-7--7--7-x-1--1-7-7-7--7--2--------------------|
 |7--7-7--7--7-7--7--7-7--7--7-x-1--1-7-7-7--7--2--------------------|
 |8--8-8--8--8-8--8--8-8--8--8-x-2--2-8-8-8--8--3--------------------|
 |9--9-9--9--9-9--9--9-9--9--9-x-3--3-9-9-9--9--4--------------------|
 |9--9-9--9--9-9--9--9-9--9--9-x-3--3-9-9-9--9--4--------------------|
 |7--7-7--7--7-7--7--7-7--7--7-x-1--1-7-7-7--7--2--------------------|

 


 


 Riff 2


 

 
 |7--7-7--7--7-7--7--7-7--7--7-x-1--1-7-7-7--7-6-5-4-----------------|
 |7--7-7--7--7-7--7--7-7--7--7-x-1--1-7-7-7--7-6-5-4-----------------|
 |8--8-8--8--8-8--8--8-8--8--8-x-2--2-8-8-8--8-7-6-5-----------------|
 |9--9-9--9--9-9--9--9-9--9--9-x-3--3-9-9-9--9-8-7-6-----------------|
 |9--9-9--9--9-9--9--9-9--9--9-x-3--3-9-9-9--9-8-7-6-----------------|
 |7--7-7--7--7-7--7--7-7--7--7-x-1--1-7-7-7--7-6-5-4-----------------|

 


 


 riff 3 - there is another guitar in background for rythm


 

 
 |4--4--4--4--4--4--4--44-4-0--0--0--0--0--0--0--0-------------------|
 |4--4--4--4--4--4--4--44-4-0--0--0--0--0--0--0--0-------------------|
 |5--5--5--5--5--5--5--55-5-1--1--1--1--1--1--1--1-------------------|
 |6--6--6--6--6--6--6--66-6-2--2--2--2--2--2--2--2-------------------|
 |6--6--6--6--6--6--6--66-6-2--2--2--2--2--2--2--2-------------------|
 |4--4--4--4--4--4--4--44-4-0--0--0--0--0--0--0--0-------------------|

 


 


 [1:14] 


 Riff 4:Outro riff


 

 
 |5--5--5--5--8--8--5--5-6--5--4--4--4--4-5554--4--4--4-5-4--3--3--3-|
 |5--5--5--5--8--8--5--5-6--5--4--4--4--4-5554--4--4--4-5-4--3--3--3-|
 |6--6--6--6--9--9--6--6-7--6--5--5--5--5-4445--5--5--5-6-5--4--4--4-|
 |7--7--7--7--10-10-7--7-8--7--6--6--6--6-7776--6--6--6-7-6--5--5--5-|
 |7--7--7--7--10-10-7--7-8--7--6--6--6--6-7776--6--6--6-7-6--5--5--5-|
 |5--5--5--5--8--8--5--5-6--5--4--4--4--4-5554--4--4--4-5-4--3--3--3-|

 


 


 ...cont


 

 
 |3--4--3--3--3--3---7~----2~-----77777------------------------------|
 |3--4--3--3--3--3---7~----2~-----77777------------------------------|
 |4--5--4--4--4--4---6~----3~-----88888------------------------------|
 |5--6--5--5--5--5---9~----4~-----99999------------------------------|
 |5--6--5--5--5--5---9~----4~-----99999------------------------------|
 |3--4--3--3--3--3---7~----2~-----77777------------------------------|

 


 


 Solo Part one


 

 
 |--------------------------------------------------14~--------------|
 |---12-14-15-14-12-11-/12-11----------------------------------------|
 |11-------------------------11-10--10--11p10-11---------------------|
 |-------------------------------------------------------------------|
 |-------------------------------------------------------------------|
 |-------------------------------------------------------------------|
 |-------------------------------13-13-13-/13-12--10-12p10-----------|
 |---12-14-15-14-12-11-/12-11-12---------------------------12-1211109|
 |11-----------------------------------------------------------------|
 |-------------------------------------------------------------------|
 |-------------------------------------------------------------------|
 |-------------------------------------------------------------------|
 |--------------------------------12-12-12-11b(12)-11-9--------9-----|
 |----------------9-10-12-10-9-10-----------------------12b(14)-(14)r|
 |/8-9-11-8---8-9----------------------------------------------------|
 |-------------------------------------------------------------------|
 |-------------------------------------------------------------------|
 |-------------------------------------------------------------------|
 |--------------------------------------16-16~---16-17-16-14-16-14-12|
 |10b(12)-10-10p9p7h9p7-7b9--9-9/10-9--------------------------------|
 |-------------------------------------------------------------------|
 |-------------------------------------------------------------------|
 |-------------------------------------------------------------------|
 |-------------------------------------------------------------------|
 |14-12-11--11h12p11p10-------------[7]~-----------------------------|
 |----------------------------------[7]~-----------------------------|
 |----------------------------------[7]~-----------------------------|
 |-------------------------------------------------------------------|
 |-------------------------------------------------------------------|
 |-------------------------------------------------------------------|

 


 


 Solo Part 2


 

 
 |--------------------------------------------------14~--------------|
 |---12-14-15-14-12-11-/12-11----------------------------------------|
 |11-------------------------11-10--10--11p10-11---------------------|
 |x------------------------------------------------------------------|
 |x------------------------------------------------------------------|
 |-------------------------------------------------------------------|
 |-------------------------------13-13-13-/13-12--10-12p10-----------|
 |---12-14-15-14-12-11-/12-11------------------------------12-1211109|
 |11-------------------------11--------------------------------------|
 |-------------------------------------------------------------------|
 |-------------------------------------------------------------------|
 |-------------------------------------------------------------------|

 


 


 |soft|


 

 
 |----------------------11--12--14--12--14--/16--14----12p11-12~-----|
 |----------------------x--------------------------------------------|
 |/8-9-11-9-11p9p8------x--------------------------------------------|
 |----------------------x--------------------------------------------|
 |-------------------------------------------------------------------|
 |-------------------------------------------------------------------|
 |12-11--9--11-12--14--12---12--14--/16--14--12--11-----/19-19b(21)19|
 |x-------------------------x----------------------------------------|
 |x-------------------------x----------------------------------------|
 |x-------------------------x----------------------------------------|
 |-------------------------------------------------------------------|
 |-------------------------------------------------------------------|

 


 


 /- Drop from the bent 14 down to 13


 

 
 |19--16-16-16-14-14-12--b(14)r13--12---11-11hp12-10~----------------|
 |-------------------------------------------------------------------|
 |-------------------------------------------------------------------|
 |-------------------------------------------------------------------|
 |-------------------------------------------------------------------|
 |-------------------------------------------------------------------|
 |9-10-12-10-9---10p9h10--------9b(10)--(10)---(10)--(10)r9----9-9-9-|
 |x------------------------------------------------------------------|
 |x------------------------------------------------------------------|
 |x------------------------------------------------------------------|
 |-------------------------------------------------------------------|
 |-------------------------------------------------------------------|
 |7-9p7-9----9-10-12-10-9-10-9-10-7--------18-19---------------------|
 |-----------------------------------------x----------12-12-12-12-12-|
 |-----------------------------------------x-------------------------|
 |-----------------------------------------x-------------------------|
 |-------------------------------------------------------------------|
 |-------------------------------------------------------------------|


Important: The song above is NOT stored on the Chordie server. The original song is hosted at www.guitaretab.com. Chordie works as a search engine and provides on-the-fly formatting. Chordie does not index songs against artists'/composers' will. To remove this song please click here.

This song is displayed as text-only. Transposing and tuning is only available for chordpro-songs.
Rate #1 of 2 versions

Jango Player

Login - add to songbook

SHARE PAGE  



You need to log in to post comments