Guitar Tabs, Chords and Lyrics
Server problems seems to be fixed. Chordie has been experiencing problems with songs disappearing. These issues now seems to be fixed, but still verifying the fix. If you find anything strange, please email admin@chordie.com.


Narcosynthesis  Nevermore

As recorded by Nevermore
(From the 2000 Album DEAD HEART IN A DEAD WORLD)
Transcribed by livingzombie
Words and Music by Nevermore
Gtr I (Bb Eb Ab Db Gb Bb Eb) - 'Guitar 1'
Gtr II (Bb Eb Ab Db Gb Bb Eb) - 'Guitar 2'
Intro
Q=136
N.C.
[4/4] Gtrs I, II
E S E S E +S S S S E E E S E S E +S S S S E E
 
 ||--------------------------|-------------------------|
 ||--------------------------|-------------------------|
 ||o-------------------------|-------------------------|
 ||--------------------------|-------------------------|
 ||o-------------------------|-------------------------|
 ||--------------------------|-------------------------|
 ||--6-0-6-0-6-(6)-0-6-0-6-0-|-6-0-6-0-6-(6)-0-6h7p6-0-|

[B5]PM----|
E S E S E +S S E S S S S 4x
 
 |-----------------------------||
 |-----------------------------||
 |----------------------------o||
 |-----------------------------||
 |----------------------------o||
 |--------------------2-2-2-2--||
 |-6-0-6-0-6-(6)-0-6\-0-0-0-0--||

Pre-Verse
[B5]  
 
 PM----| PM----| PM----| PM----| PM------------|

S S S S E S S S S E S S S S E S S S S E S S S S S S S S
 
 |-----------------------------|-----------------------------|
 |-----------------------------|-----------------------------|
 |-----------------------------|-----------------------------|
 |-----------------------------|-----------------------------|
 |-----------------------------|-----------------------------|
 |-2-2-2-2---2-2-2-2---2-2-2-2-|---2-2-2-2---2-2-2-2-2-2-2-2-|
 |-0-0-0-0---0-0-0-0---0-0-0-0-|---0-0-0-0---0-0-0-0-0-0-0-0-|
 PM----| PM----| PM----| PM------------| PM--|

S S S S E S S S S E S S S S E S S S S E S S S S S S S S
 
 |-----------------------------|-----------------------------||
 |-----------------------------|-----------------------------||
 |-----------------------------|-----------------------------||
 |-----------------------------|-----------------------------||
 |-----------------------------|-----------------------------||
 |-2-2-2-2---2-2-2-2---2-2-2-2-|---2-2-2-2-2-2-2-2---2-2-2---||
 |-0-0-0-0---0-0-0-0---0-0-0-0-|---0-0-0-0-0-0-0-0---0-0-0---||

Verse
 
 PM----| PM----| PM----| PM----| PM------------|

S S S S E S S S S E S S S S E S S S S E S S S S S S S S
 
 ||------------------------------|-----------------------------|
 ||------------------------------|-----------------------------|
 ||o-----------------------------|-----------------------------|
 ||------------------------------|-----------------------------|
 ||o-----------------------------|-----------------------------|
 ||--2-2-2-2---2-2-2-2---2-2-2-2-|---2-2-2-2---2-2-2-2-2-2-2-2-|
 ||--0-0-0-0---0-0-0-0---0-0-0-0-|---0-0-0-0---0-0-0-0-0-0-0-0-|
 PM----| PM----| PM----| PM------------| PM--|

S S S S E S S S S E S S S S E S S S S E S S S S S S S S 4x
 
 |-----------------------------|------------------------------||
 |-----------------------------|------------------------------||
 |-----------------------------|-----------------------------o||
 |-----------------------------|------------------------------||
 |-----------------------------|-----------------------------o||
 |-2-2-2-2---2-2-2-2---2-2-2-2-|---2-2-2-2-2-2-2-2---2-2-2----||
 |-0-0-0-0---0-0-0-0---0-0-0-0-|---0-0-0-0-0-0-0-0---0-0-0----||

Bridge
$
N.C.
E S E S E +S S S S E E E S E S E +S S S S E E
 
 ||--------------------------|-------------------------|
 ||--------------------------|-------------------------|
 ||o-------------------------|-------------------------|
 ||--------------------------|-------------------------|
 ||o-------------------------|-------------------------|
 ||--------------------------|-------------------------|
 ||--4-0-4-0-4-(4)-0-4-0-4-0-|-7-0-7-0-7-(7)-0-7-0-7-0-|

To Coda
E S E S E +S S S S E E E S E S E +S S S S E E
 
 |-------------------------|----------------------------||
 |-------------------------|----------------------------||
 |-------------------------|---------------------------o||
 |-------------------------|----------------------------||
 |-------------------------|---------------------------o||
 |-------------------------|----------------------------||
 |-1-0-1-0-1-(1)-0-1-0-1-0-|-1-0-1-0-1-(1)-0-1-0-1-0----||

Guitar Break
[B5]Gtr I
 
 PM----| PM----| PM----| PM----| PM--------------|

S S S S E S S S S E S S S S E S S S S E S S S S S S S S
 
 |---------------------------------|-------------------------------------|
 |---------------------------------|-------------------------------------|
 |---------------------------------|-------------------------------------|
 |---------------------------------|-------------------------------------|
 |---------------------------------|-------------------------------------|
 |-2-2-2-2-----2-2-2-2-----2-2-2-2-|-----2-2-2--2-----2-2--2-2-2--2-2--2-|
 |-0-0-0-0-----0-0-0-0-----0-0-0-0-|-----0-0-0--0-----0-0--0-0-0--0-0--0-|

|
| Gtr II
| S S S S S S S S S S S S S S S S S S S S S S S S S S S S S S S S
 
 |-8-7-7-7-7-7-8-7-7-7-7-7-8-7-7-7-|-7-7-8-7-8-10-8-7-8-7----8-7---------|
 |---------------------------------|----------------------10-----10-8-10-|
 |---------------------------------|-------------------------------------|
 |---------------------------------|-------------------------------------|
 |---------------------------------|-------------------------------------|
 |---------------------------------|-------------------------------------|
 |---------------------------------|-------------------------------------|
 PM----| PM----| PM----| PM---------------| PM---|

S S S S E S S S S E S S S S E S S S S E S S S S S S S S
 
 |---------------------------------|--------------------------------------||
 |---------------------------------|--------------------------------------||
 |---------------------------------|--------------------------------------||
 |---------------------------------|--------------------------------------||
 |---------------------------------|--------------------------------------||
 |-2-2-2-2-----2-2-2-2-----2-2-2-2-|-----2-2-2--2-2---2-2--2-----2--2-2---||
 |-0-0-0-0-----0-0-0-0-----0-0-0-0-|-----0-0-0--0-0---0-0--0-----0--0-0---||

|
| ~~~~
| S S S S S S S S S S S S S S S S S S S S S S S S S S S S Q
 
 |-8-7-7-7-7-7-8-7-7-7-7-7-8-7-7-7-|-7-7-8-7-8-10-8-7-8-7----7------------||
 |---------------------------------|----------------------10---[10]-------||
 |---------------------------------|--------------------------------------||
 |---------------------------------|--------------------------------------||
 |---------------------------------|--------------------------------------||
 |---------------------------------|--------------------------------------||
 |---------------------------------|--------------------------------------||

Verse
Gtrs I, II
 
 PM----| PM----| PM----| PM----| PM------------|

S S S S E S S S S E S S S S E S S S S E S S S S S S S S
 
 ||------------------------------|-----------------------------|
 ||------------------------------|-----------------------------|
 ||o-----------------------------|-----------------------------|
 ||------------------------------|-----------------------------|
 ||o-----------------------------|-----------------------------|
 ||--2-2-2-2---2-2-2-2---2-2-2-2-|---2-2-2-2---2-2-2-2-2-2-2-2-|
 ||--0-0-0-0---0-0-0-0---0-0-0-0-|---0-0-0-0---0-0-0-0-0-0-0-0-|

D.S. al Coda
 
 PM----| PM----| PM----| PM------------| PM--|

S S S S E S S S S E S S S S E S S S S E S S S S S S S S 3x
 
 |-----------------------------|------------------------------||
 |-----------------------------|------------------------------||
 |-----------------------------|-----------------------------o||
 |-----------------------------|------------------------------||
 |-----------------------------|-----------------------------o||
 |-2-2-2-2---2-2-2-2---2-2-2-2-|---2-2-2-2-2-2-2-2---2-2-2----||
 |-0-0-0-0---0-0-0-0---0-0-0-0-|---0-0-0-0-0-0-0-0---0-0-0----||

&
B5 N.C. B5 C5D5 B5 C5B5 E5 Eb/B C5
 
 PM------| PM------| PM------|

Q E E S S E Q Q E E S S E E E Q E E S S E E E Q. Q. Q
 
 |-------------------|------------------|------------------|---------------||
 |-------------------|------------------|------------------|---------------||
 |----------------|------------------|------------------|---------------||
 |-------------------|------------------|------------------|---------------||
 |-2-----------------|-2----------------|-2----------------|---------------||
 |-2--2-2-2-2-2------|-2--2-2-2-2-2-3-5-|-2--2-2-2-2-2-3-2-|-7----7----3---||
 |-0--0-0-0-0-0------|-0--0-0-0-0-0-1-3-|-0--0-0-0-0-0-1-0-|-5----4----1---||

Chorus
$$
H Q E +E H Q E +E H E +E E +E H E E Q
|---------------|-------------------|------------------|-------------|
|---------------|-------------------|------------------|-------------|
|---------------|-------------------|------------------|-------------|
|---------------|-------------------|------------------|-------------|
|-7----7--7-(7)S|=10----10--10-(10)S|=4----4-(4)S5-(5)S|=3----3-2-3--|
|-7----7--7-(7)S|=10----10--10-(10)S|=4----4-(4)S5-(5)S|=3----3-2-3--|
|-5----5--5-(5)S|==8-----8---8--(8)S|=2----2-(2)S3-(3)S|=1----1-0-1--|
E5 G5 A5 A N.C.
PM--|
H Q E +E H Q E +E H Q E +E H E E E E
|----------------|-------------------|--------------------|--------------|
|----------------|-------------------|--------------------|--------------|
|----------------|-------------------|--------------------|--------------|
|----------------|-------------------|--------------------|--------------|
|-/7----7--7-(7)S|=10----10--10-(10)S|=12----12--12-(12)\-|--------------|
|-/7----7--7-(7)S|=10----10--10-(10)S|=12----12--12-(12)\-|-5----5-------|
|-/5----5--5-(5)S|==8-----8---8--(8)S|=10----10--10-(10)\-|-4----4-0-1-0-|
E5 G5 C#5 D5 C5 N.C.
PM|
H Q E +E H Q E +E H E +E E +E H Q E E
|---------------|-------------------|------------------|-------------|
|---------------|-------------------|------------------|-------------|
|---------------|-------------------|------------------|-------------|
|---------------|-------------------|------------------|-------------|
|-7----7--7-(7)S|=10----10--10-(10)S|=4----4-(4)S5-(5)S|=3----3------|
|-7----7--7-(7)S|=10----10--10-(10)S|=4----4-(4)S5-(5)S|=3----3------|
|-5----5--5-(5)S|==8-----8---8--(8)S|=2----2-(2)S3-(3)S|=1----1--3-4-|
To Dbl. Coda
E5 G5 A5 A
PM--|
|-3-|
H Q E +E H Q E +E H Q E +E H Q Q Q
|----------------|-------------------|--------------------|-------------||
|----------------|-------------------|--------------------|-------------||
|----------------|-------------------|--------------------|-------------||
|----------------|-------------------|--------------------|-------------||
|-/7----7--7-(7)S|=10----10--10-(10)S|=12----12--12-(12)\-|-------------||
|-/7----7--7-(7)S|=10----10--10-(10)S|=12----12--12-(12)\-|-5----5-5-5--||
|-/5----5--5-(5)S|==8-----8---8--(8)S|=10----10--10-(10)\-|-4----4-4-4--||
Break
N.C.
E S E S E +S S S S E E E S E S E +S S S S E E
||--------------------------|-------------------------|
||--------------------------|-------------------------|
||o-------------------------|-------------------------|
||--------------------------|-------------------------|
||o-------------------------|-------------------------|
||--------------------------|-------------------------|
||--6-0-6-0-6-(6)-0-6-0-6-0-|-6-0-6-0-6-(6)-0-6h7p6-0-|
PM----|
E S E S E +S S E S S S S
|-----------------------------||
|-----------------------------||
|----------------------------o||
|-----------------------------||
|----------------------------o||
|--------------------2-2-2-2--||
|-6-0-6-0-6-(6)-0-6\-0-0-0-0--||
Verse
PM----| PM----| PM----| PM----| PM------------|
S S S S E S S S S E S S S S E S S S S E S S S S S S S S
||------------------------------|-----------------------------|
||------------------------------|-----------------------------|
||o-----------------------------|-----------------------------|
||------------------------------|-----------------------------|
||o-----------------------------|-----------------------------|
||--2-2-2-2---2-2-2-2---2-2-2-2-|---2-2-2-2---2-2-2-2-2-2-2-2-|
||--0-0-0-0---0-0-0-0---0-0-0-0-|---0-0-0-0---0-0-0-0-0-0-0-0-|
PM----| PM----| PM----| PM------------| PM--|
S S S S E S S S S E S S S S E S S S S E S S S S S S S S
|-----------------------------|------------------------------||
|-----------------------------|------------------------------||
|-----------------------------|-----------------------------o||
|-----------------------------|------------------------------||
|-----------------------------|-----------------------------o||
|-2-2-2-2---2-2-2-2---2-2-2-2-|---2-2-2-2-2-2-2-2---2-2-2----||
|-0-0-0-0---0-0-0-0---0-0-0-0-|---0-0-0-0-0-0-0-0---0-0-0----||
Gtr I
PM----| PM----| PM----| PM----| PM------------|
S S S S E S S S S E S S S S E S S S S E S S S S S S S S
|-----------------------------|-----------------------------|
|-----------------------------|-----------------------------|
|-----------------------------|-----------------------------|
|-----------------------------|-----------------------------|
|-----------------------------|-----------------------------|
|-2-2-2-2---2-2-2-2---2-2-2-2-|---2-2-2-2---2-2-2-2-2-2-2-2-|
|-0-0-0-0---0-0-0-0---0-0-0-0-|---0-0-0-0---0-0-0-0-0-0-0-0-|
|
| Gtr II
| W W
|-----------------------------|-----------------------------|
|-----------------------------|-----------------------------|
|-----------------------------|-----------------------------|
|-9---------------------------|-8---------------------------|
|-----------------------------|-----------------------------|
|-7---------------------------|-6---------------------------|
|-----------------------------|-----------------------------|
D.S.S. al Dbl. Coda &&
C5 A N.C.
PM----| PM----| PM----| PM--------------| PM--|
|-3-|
S S S S E S S S S E S S S S E S S S S S S Q Q Q H E E E E
|-----------------------------|---------------------||-----------------------||
|-----------------------------|---------------------||-----------------------||
|-----------------------------|---------------------||-----------------------||
|-----------------------------|---------------------||-----------------------||
|-----------------------------|---------------------||-----------------------||
|-2-2-2-2---2-2-2-2---2-2-2-2-|---2-2-2-2-2-2-3-3-3-||--5----------5---------||
|-0-0-0-0---0-0-0-0---0-0-0-0-|---0-0-0-0-0-0-1-1-1-||--4----------4--0-1-0--||
|
| <
| PM--|
| |-3-|
| W H Q Q Q H +H
|-----------------------------|---------------------||-12pb14r===(12)--------||
|-----------------------------|---------------------||-----------------------||
|-----------------------------|---------------------||-----------------------||
|-7---------------------------|-6-------------------||-----------------------||
|-----------------------------|---------------------||-----------------------||
|-5---------------------------|-4-------------3-3-3-||-----------------------||
|-----------------------------|---------------1-1-1-||-----------------------||
Guitar Solo
H Q E +E H Q E +E
|-----------------|-------------------|
|-----------------|-------------------|
|-----------------|-------------------|
|-----------------|-------------------|
|--7-----7--7-(7)S|=10----10--10-(10)S|
|--7-----7--7-(7)S|=10----10--10-(10)S|
|--5-----5--5-(5)S|==8-----8---8--(8)S|
|
| ~~~~~~~~ ~~
| Q Q Q E E W
|-----------------|-------------------|
|-----------------|-------------------|
|-/4--4--4--4--4S=|==7----------------|
|-----------------|-------------------|
|-----------------|-------------------|
|-----------------|-------------------|
|-----------------|-------------------|
H E +E E E H E E Q
|------------------------|-----------------------|
|------------------------|-----------------------|
|------------------------|-----------------------|
|------------------------|-----------------------|
|-4---------4--(4)S=5--4-|-3---------3--2-3------|
|-4---------4--(4)S=5--4-|-3---------3--2-3------|
|-2---------2--(2)S=3--2-|-1---------1--0-1------|
|
| ~~~~~~~ ~~~~~~
| Q E a E +E E +Q Q E a E +Q E S S
|------------------------|-----------------------|
|------------------------|-----------------------|
|-6--6-6h7-(7)--6--(6)---|-5--5-5h7-(7)---5-7p5--|
|------------------------|-----------------------|
|------------------------|-----------------------|
|------------------------|-----------------------|
|------------------------|-----------------------|
E5 G5 A5 A
H Q E +E H Q E +E H Q E +E H
|-----------------|----------------------|---------------------|--------||
|-----------------|----------------------|---------------------|--------||
|-----------------|----------------------|---------------------|--------||
|-----------------|----------------------|---------------------|--------||
|-/7-----7--7-(7)S|===10-----10--10-(10)S|=12-----12--12-(12)\-|--------||
|-/7-----7--7-(7)S|===10-----10--10-(10)S|=12-----12--12-(12)\-|--5-----||
|-/5-----5--5-(5)S|====8------8---8--(8)S|=10-----10--10-(10)\-|--4-----||
|
| ~~~~~~~~ ~ ~~ ~~~~~~~~~~~~~~~~~~
| H H a Q H Q Q Q H +H
|-----------------|----------------------|---------------------|--------||
|-----------------|----------------------|---------------------|--------||
|--4----/9--------|-9h11--9------11------|-11--9---------------|--------||
|-----------------|----------------------|---------9-----------|-(9)----||
|-----------------|----------------------|---------------------|--------||
|-----------------|----------------------|---------------------|--------||
|-----------------|----------------------|---------------------|--------||
N.C.
E S E S E +S S S S E E
||--------------------------------------------|
||--------------------------------------------|
||o-------------------------------------------|
||--------------------------------------------|
||o-------------------------------------------|
||--------------------------------------------|
||---5----0--5----0-5----(5)0--5--0-5-----0---|
|
| S S S S S S S S S S S S S S S S
||--15p12-0h12p0----0---------------0-12-12p0-|
||---------------13---13p12p0-12h13-----------|
||o-------------------------------------------|
||--------------------------------------------|
||o-------------------------------------------|
||--------------------------------------------|
||--------------------------------------------|
E S E S E +S S S S E E
|---------------------------------------------|
|---------------------------------------------|
|---------------------------------------------|
|---------------------------------------------|
|---------------------------------------------|
|---------------------------------------------|
|---5----0--5----0-5----(5)0--5h=6p5-----0----|
|
| S S S S S S S S S S S S S S S S
|-/19p15p0-15p0-12p0-12---------12p0-15p12----|
|-----------------------12p0h12------------15-|
|---------------------------------------------|
|---------------------------------------------|
|---------------------------------------------|
|---------------------------------------------|
|---------------------------------------------|
E S E S E +S S S S E E
|-------------------------------------------|
|-------------------------------------------|
|-------------------------------------------|
|-------------------------------------------|
|-------------------------------------------|
|-------------------------------------------|
|--5----0--5----0-5----(5)0--5--0-5-----0---|
|
| S S S S S S S S S S S S S S S S
|-15p12-0h12p0----0---------------0-12-12p0-|
|--------------13---13p12p0-12h13-----------|
|-------------------------------------------|
|-------------------------------------------|
|-------------------------------------------|
|-------------------------------------------|
|-------------------------------------------|
E S E S E +S S S S E E
|-----------------------------------------------||
|-----------------------------------------------||
|----------------------------------------------o||
|-----------------------------------------------||
|----------------------------------------------o||
|-----------------------------------------------||
|---5----0--5----0-5----(5)-0-5h=6p=5-----0-----||
|
| S S S S S S S S S S S S S S S S
|-/20p17p0-17p0----0----------------------------||
|---------------19---16h19p16p0-----------------||
|-------------------------------17p16p14-------o||
|----------------------------------------17-----||
|-------------------------------------------14-o||
|-----------------------------------------------||
|-----------------------------------------------||
E5 N.C. Em N.C.
PM PM
H Q E E H Q E E
|---------------------|----------------------|
|---------------------|----------------------|
|---------------------|----------------------|
|---7-----7------7----|----------------------|
|---7-----7------7----|---7----7--------7----|
|---5-----5------5--0-|---3----3--------3--0-|
|---------------------|----------------------|
|
| ~~~~ ~~~~~~ ~ ~~~~~~~
| H E a E +E E a H E a E +E E
|---------------------|----------------------|
|---------------------|----------------------|
|-[14]----------------|----------------------|
|---7-----7-7h9-(9)-7-|-7s9----9-9h10-(10)-9-|
|---------------------|----------------------|
|---------------------|----------------------|
|---------------------|----------------------|
Dm G5 F5 N.C. D5C5
H Q E E Q Q Q E E
|---------------------------|---------------------------------|
|---------------------------|---------------------------------|
|---------------------------|---------------------------------|
|---------------------------|-----3---3-----------------------|
|----5-----5---------5--(5)-|-----3---3-----------------------|
|----2-----2---------2s==3--|-----1---1-----------------5s=3--|
|---------------------------|----------------------0----3s=1--|
|
| ~~ ~~~~~~~ ~~ ~~~~~~~
| |--3--|
| a H E a E +E E a Q S S S E +E E E E
|---------------------------|---------------------------------|
|---------------------------|---------------------------------|
|---------------------------|---------------------------------|
|-9s10----10-10h12-(12)-10--|-12s14--12h14p12s10-(10)-9-7-----|
|---------------------------|-----------------------------10--|
|---------------------------|---------------------------------|
|---------------------------|---------------------------------|
E5 N.C. Em N.C.
PM PM
H Q E E H Q E E
|----------------------------------|---------------------------------------|
|----------------------------------|---------------------------------------|
|----------------------------------|---------------------------------------|
|---7-------7--------------7-------|---------------------------------------|
|---7-------7--------------7-------|--------7-------7--------------7-------|
|---5-------5--------------5----0--|--------3-------3--------------3----0--|
|----------------------------------|---------------------------------------|
|
| ~~~~ ~~~~~~~~ ~~~~ ~~~~~~~~
| H E a E +E E a H E a E +E E
|-(17)----(17)-(17)h(19)-(19)-(17)-|-(17)s(19)----(19)-(19)h(20)-(20)-(19)-|
|----------------------------------|---------------------------------------|
|----------------------------------|---------------------------------------|
|---7-------7----7h===9---(9)---7--|---7s===9-------9----9h==10--(10)---9--|
|----------------------------------|---------------------------------------|
|----------------------------------|---------------------------------------|
|----------------------------------|---------------------------------------|
Dm G5 F5 N.C. D5 C5
H Q E E Q Q Q E E
|---------------------------------------|---------------------------------------------------|
|---------------------------------------|---------------------------------------------------|
|---------------------------------------|---------------------------------------------------|
|---------------------------------------|--------3-----3------------------------------------|
|--------5-------5--------------5---(5)-|--------3-----3------------------------------------|
|--------2-------2--------------2s===3--|--------1-----1---------------------------5s===3---|
|---------------------------------------|--------------------------------0---------3s===1---|
|
| ~~~~ ~~~~~~~~ ~~~~ ~~~~~~~~
| |---3---|
| a H E a E +E E a Q S S S E +E E E E
|-(19)s(20)----(20)-(20)h(22)-(22)-(20)-|-(22)s(24)--(22)(24)(22)s(20)-(20)-(19)-(17)-(19)--|
|---------------------------------------|---------------------------------------------------|
|---------------------------------------|---------------------------------------------------|
|---9s==10------10---10h==12--(12)--10--|--12s==14----12h=14p=12s==10--(10)---9----7----9---|
|---------------------------------------|---------------------------------------------------|
|---------------------------------------|---------------------------------------------------|
|---------------------------------------|---------------------------------------------------|
B5 N.C. B5 C5D5
PM-------| PM------|
Q E E S S E Q Q E E S S E E E
|----------------------------|------------------||
|----------------------------|------------------||
|-------------------------|------------------||
|----------------------------|------------------||
|---2------------------------|-2----------------||
|---2--------2--2-2-2-2------|-2--2-2-2-2-2-3-5-||
|---0--------0--0-0-0-0------|-0--0-0-0-0-0-1-3-||
|
| PM------|
| Q +H Q Q E E S S E E E
|-(17)b19--(17)--------------|------------------||
|----------------------------|------------------||
|----------------------------|------------------||
|---7b9-----(7)--------------|------------------||
|----------------------------|-2----------------||
|----------------------------|-2--2-2-2-2-2-3-5-||
|----------------------------|-0--0-0-0-0-0-1-3-||
Pre-Chorus
PM----| PM----| PM----| PM----| PM------------|
S S S S E S S S S E S S S S E S S S S E S S S S S S S S
|-----------------------------|-----------------------------|
|-----------------------------|-----------------------------|
|-----------------------------|-----------------------------|
|-----------------------------|-----------------------------|
|-----------------------------|-----------------------------|
|-2-2-2-2---2-2-2-2---2-2-2-2-|---2-2-2-2---2-2-2-2-2-2-2-2-|
|-0-0-0-0---0-0-0-0---0-0-0-0-|---0-0-0-0---0-0-0-0-0-0-0-0-|
|
| W W
|-----------------------------|-----------------------------|
|-----------------------------|-----------------------------|
|-----------------------------|-----------------------------|
|-9---------------------------|-8---------------------------|
|-----------------------------|-----------------------------|
|-7---------------------------|-6---------------------------|
|-----------------------------|-----------------------------|
C5
PM----| PM----| PM----| PM--------|
S S S S E S S S S E S S S S E S S S S S S W
|-----------------------------|--------------------||
|-----------------------------|--------------------||
|-----------------------------|--------------------||
|-----------------------------|--------------------||
|-----------------------------|---------------3----||
|-2-2-2-2---2-2-2-2---2-2-2-2-|---2-2-2-2-2-2-3----||
|-0-0-0-0---0-0-0-0---0-0-0-0-|---0-0-0-0-0-0-1----||
|
| W H W
|-----------------------------|--------------------||
|-----------------------------|--------------------||
|-----------------------------|--------------------||
|-7---------------------------|-6------------------||
|-----------------------------|---------------3----||
|-5---------------------------|-4-------------3----||
|-----------------------------|---------------1----||
Chorus
E5 G5 C#5 D5 C5 B5C5
Gtrs I, II
H Q E +E H Q E +E H E +E E +E H E E Q
|---------------|-------------------|------------------|-------------|
|---------------|-------------------|------------------|-------------|
|---------------|-------------------|------------------|-------------|
|---------------|-------------------|------------------|-------------|
|-7----7--7-(7)S|=10----10--10-(10)S|=4----4-(4)S5-(5)S|=3----3-2-3--|
|-7----7--7-(7)S|=10----10--10-(10)S|=4----4-(4)S5-(5)S|=3----3-2-3--|
|-5----5--5-(5)S|==8-----8---8--(8)S|=2----2-(2)S3-(3)S|=1----1-0-1--|
E5 G5 A5 N.C.
PM--| ~~~~~~~~~PM--|
|-3-|
H Q E +E H Q E +E H Q E E E H +E E E E
|----------------|-------------------|-----------------|----------------|
|----------------|-------------------|-----------------|----------------|
|----------------|-------------------|-----------------|----------------|
|----------------|-------------------|-----------------|----------------|
|-/7----7--7-(7)S|=10----10--10-(10)S|=12----12--------|----------------|
|-/7----7--7-(7)S|=10----10--10-(10)S|=12----12--------|----------------|
|-/5----5--5-(5)S|==8-----8---8--(8)S|=10----10--7-6-5-|-4----(4)-0-1-0-|
H Q E +E H Q E +E H E +E E +E H Q E E
|---------------|-------------------|------------------|-------------|
|---------------|-------------------|------------------|-------------|
|---------------|-------------------|------------------|-------------|
|---------------|-------------------|------------------|-------------|
|-7----7--7-(7)S|=10----10--10-(10)S|=4----4-(4)S5-(5)S|=3----3------|
|-7----7--7-(7)S|=10----10--10-(10)S|=4----4-(4)S5-(5)S|=3----3--5-6-|
|-5----5--5-(5)S|==8-----8---8--(8)S|=2----2-(2)S3-(3)S|=1----1--3-4-|
E5 G5 A5 A
H Q E +E H Q E +E H Q E +E W +W
|----------------|-------------------|--------------------|----------|--------||
|----------------|-------------------|--------------------|----------|--------||
|----------------|-------------------|--------------------|----------|--------||
|----------------|-------------------|--------------------|----------|--------||
|-/7----7--7-(7)S|=10----10--10-(10)S|=12----12--12-(12)\-|-6--------|-(6)----||
|-/7----7--7-(7)S|=10----10--10-(10)S|=12----12--12-(12)\-|-5--------|-(5)----||
|-/5----5--5-(5)S|==8-----8---8--(8)S|=10----10--10-(10)\-|-4--------|-(4)----||
Interlude
PM PM PM ~
H +E E E E H +E E E E H +E E E E H E E Q
||-----------------|----------------|----------------|---------------||
||-----------------|----------------|----------------|---------------||
||o----------------|----------------|----------------|--------------o||
||-----------------|----------------|------------5-4-|-3-------------||
||o----------------|----------------|------------3-2-|-1----8-7-5---o||
||--7----(7)---7-6-|-5----(5)---5-4-|-3----(3)-------|------6-5-3----||
||--5----(5)-0-5-4-|-3----(3)-0-3-2-|-1----(1)-1-----|---------------||
Gtr I
PM PM
|--------------------------|--------------------------|
|--------------------------|--------------------------|
|--------------------------|--------------------------|
|--------------------------|--------------------------|
|--------------------------|--------------------------|
|--7----(7)---------7----6-|-----5----(5)------5----4-|
|--5----(5)-0-------5----4-|-----3----(3)-0----3----2-|
|
| Gtr II
| ~~ ~~
| |------3------| |----3-----|
| H Q a Q Q a H Q Q Q
|--------------------------|--------------------------|
|--------------------------|--------------------------|
|--------------------------|--------------------------|
|-14----14----14h16---14---|-14h16----16----17---19---|
|--------------------------|--------------------------|
|--------------------------|--------------------------|
|--------------------------|--------------------------|
PM ~~
H +E E E E H E E Q
|-------------------------------|----------------------------|
|-------------------------------|----------------------------|
|-------------------------------|----------------------------|
|--------------------------5--4-|--3-------------------------|
|--------------------------3--2-|--1------------------8-7-5--|
|--3-----------------(3)--------|---------------------6-5-3--|
|--1-----------------(1)-1------|----------------------------|
|
| ~~~ ~~~
| |--3--|
| E +Q S S Q. E E S S S E E H
|-------------------------------|----------------------------|
|-------------------------------|----------------------------|
|----------------------------16-|-17-16h17p16-15-16----------|
|-17b19==(17)r=17p16-17---------|-------------------\15------|
|-------------------------------|----------------------------|
|-------------------------------|----------------------------|
|-------------------------------|----------------------------|
PM PM
|--------------------------|--------------------------|
|--------------------------|--------------------------|
|--------------------------|--------------------------|
|--------------------------|--------------------------|
|--------------------------|--------------------------|
|--7----(7)---------7----6-|-----5----(5)------5----4-|
|--5----(5)-0-------5----4-|-----3----(3)-0----3----2-|
|
| ~~ ~~
| |------3------| |----3-----|
| H Q a Q Q a H Q Q Q
|--------------------------|--------------------------|
|--------------------------|--------------------------|
|--------------------------|--------------------------|
|-14----14----14h16---14---|-14h16----16----17---19---|
|--------------------------|--------------------------|
|--------------------------|--------------------------|
|--------------------------|--------------------------|
PM ~~
H +E E E E H E E q
|-----------------------------------|-------------------------------------||
|-----------------------------------|-------------------------------------||
|-----------------------------------|-------------------------------------||
|------------------------------5--4-|--3----------------------------------||
|------------------------------3--2-|--1-------------------8--7-5---------||
|---3--------------------(3)--------|----------------------6--5-3---------||
|---1--------------------(1)-1------|-------------------------------------||
|
| ~~~ ~~~~~
| |--3--|
| E +Q S S Q. E E S S S E E Q. +E
|-----------------------------------|-------------------------------------||
|-----------------------------------|-------------------------------------||
|--------------------------------16-|-17-16h17p16-15-16-------------------||
|-[17]b19==([17])r=17p16-17---------|-------------------\[15]-----([15])\-||
|-----------------------------------|-------------------------------------||
|-----------------------------------|-------------------------------------||
|-----------------------------------|-------------------------------------||
Outro
N.C.
Gtrs I, II
E S E S E +S S S S E E E S E S E +S S S S E E E S E S E +S S S S e E
|-------------------------|-------------------------|-------------------------*|
|-------------------------|-------------------------|-------------------------*|
|-------------------------|-------------------------|-------------------------*|
|-------------------------|-------------------------|-------------------------*|
|-------------------------|-------------------------|-------------------------*|
|-------------------------|-------------------------|-------------------------*|
|-6-0-6-0-6-(6)-0-6-0-6-0-|-6-0-6-0-6-(6)-0-6h7p6-0-|-6-0-6-0-6-(6)-0-6-0-6---*|
Duration Legend
---------------
W - whole; H - half; Q - quarter; E - 8th; S - 16th; T - 32nd; X - 64th; a - acciaccatura
+ - note tied to previous; . - note dotted; .. - note double dotted
Uncapitalized letters represent notes that are staccato (1/2 duration)
Irregular groupings are notated above the duration line
Duration letters will always appear directly above the note/fret number it represents the
duration for. Duration letters with no fret number below them represent rests. Multi-
bar rests are notated in the form Wxn, where n is the number of bars to rest for. Low
melody durations appear below the staff
Tablature Legend
----------------
h - hammer-on
p - pull-off
b - bend
pb - pre-bend
r - bend release (if no number after the r, then release immediately)
/\ - slide into or out of (from/to "nowhere")
s - legato slide
S - shift slide
- natural harmonic
[n] - artificial harmonic
n(n) - tapped harmonic
~ - vibrato
tr - trill
T - tap
TP - trem. picking
PM - palm muting
\n/ - tremolo bar dip; n = amount to dip
\n - tremolo bar down
n/ - tremolo bar up
/n\ - tremolo bar inverted dip
= - hold bend; also acts as connecting device for hammers/pulls
- volume swell (louder/softer)
x - on rhythm slash represents muted slash
o - on rhythm slash represents single note slash
Misc Legend
-----------
| - bar
|| - double bar
||o - repeat start
o|| - repeat end
*| - double bar (ending)
: - bar (freetime)
$ - Segno
& - Coda
Tempo markers - = BPM(8/16=s8/s16), where s8 = swing 8ths, s16 = swing 16ths

Important: The song above is NOT stored on the Chordie server. The original song is hosted at www.guitaretab.com. Chordie works as a search engine and provides on-the-fly formatting. Chordie does not index songs against artists'/composers' will. To remove this song please click here.

Text color:
Chord color:
Chord grids: 
Font size:    
Page size: 

B5
Rate #1 of 3 versions

Jango Player

Login - add to songbook

SHARE PAGE  




You need to log in to post comments