Guitar Tabs, Chords and Lyrics
Update 25:10. 13:00. Site is back up running again. Songbooks are recovered. Woring on getting search back up..


Hit or Miss  New Found Glory

As recorded by New Found Glory
(From the 2000 Album NEW FOUND GLORY)
Transcribed by FenderKid41
Words and Music by New Found Glory
Arranged by New Found Glory
Gtr I (E A D G B E) - 'Untitled'
Gtr II (E A D G B E) - 'Untitled'
Gtr III (E A D G B E) - 'Distortion'
Introduction
Q=173
[E5] [B] [Bsus2/C#Asus2] [E5] [B] [Bsus2/C#Asus2] 
[4/4] Gtr I
[E] [E] [E] [E] [E] [E] [E] [E] [E] [E] [E] [E] [E] [E] [E] [E] [E] [E] [E] [E] [E] [E] [E] [E] [E] [E] [E] [E] [E] [E] [E] [E]  
 
 |-----------------|-----------------|-----------------|------------------|
 |-----------------|-----------------|-----------------|------------------|
 |-----------------|-----------------|-----------------|------------------|
 |-9-9-x-9-9-9-x-9-|-9-9-x-9-9-9-x-9-|-9-9-x-9-9-9-x-9-|-9-9-x-9-9-9-x-9--|
 |-7-7-x-7-x-x-x-x-|-x-x-x-x-x-x-x-x-|-7-7-x-7-x-x-x-x-|-x-x-x-x-x-x-x-x--|
 |---------7-7---7-|-9-9---9-5-5---5-|---------7-7---7-|-9-9---9-5-5---5--|

[E5]Gtr I[B] [Bsus2/C#] [Asus2] [E5] [B5] [C#5] [A5]
~~~~~~~~~~~~~~~~~~~~~~~~~~~~~~~~~~~~
E E E E E E E E E E E E E E E E Q Q Q Q Q Q Q Q
 
 |-----------------|-------------------|-----------------|----------------------|
 |-----------------|-------------------|-----------------|----------------------|
 |-----------------|-------------------|-----------------|----------------------|
 |-9-9-x-9-9-9-x-9-|--9--9-x-9-9-9-x-9-|-----------------|----------------------|
 |-7-7-x-7-x-x-x-x-|--x--x-x-x-x-x-x-x-|-xs==xs==xs==x---|--xs====xs===xs==x----|
 |---------7-7---7-|--9--9---9-5-5---5-|-xs==xs==xs==x---|--xs====xs===xs==x----|

|
| Gtr II
 
 | PM----------------------------------|

| W +W E E E E E E E E E E E E E E E E
 
 |-----------------|-------------------|-----------------|----------------------|
 |-----------------|-------------------|-----------------|----------------------|
 |-9---------------|-(9)---------------|-----------------|----------------------|
 |-9---------------|-(9)---------------|-9-9-9-9---------|----------------------|
 |-7---------------|-(7)---------------|-7-7-7-7-9-9-9-9-|-11-11-11-11-7-7-7-7--|
 |-----------------|-------------------|---------7-7-7-7-|--9--9--9--9-5-5-5-5--|

[E5] [B] [Bsus2/C#Asus2] [E5] [B] [Bsus2/C#Asus2] 
[E] [E] [E] [E] [E] [E] [E] [E] [E] [E] [E] [E] [E] [E] [E] [E] [E] [E] [E] [E] [E] [E] [E] [E] [E] [E] [E] [E] [E] [E] [E] [E]  
 
 |-----------------|-----------------|-----------------|------------------|
 |-----------------|-----------------|-----------------|------------------|
 |-----------------|-----------------|-----------------|------------------|
 |-9-9-x-9-9-9-x-9-|-9-9-x-9-9-9-x-9-|-9-9-x-9-9-9-x-9-|-9-9-x-9-9-9-x-9--|
 |-7-7-x-7-x-x-x-x-|-x-x-x-x-x-x-x-x-|-7-7-x-7-x-x-x-x-|-x-x-x-x-x-x-x-x--|
 |---------7-7---7-|-9-9---9-5-5---5-|---------7-7---7-|-9-9---9-5-5---5--|

|
| E E E E E E E E E E E E E E E E E E E E E E E E E E E E E E E E
 
 |-----------------|-----------------|-----------------|------------------|
 |-----------------|-----------------|-----------------|------------------|
 |-----------------|-----------------|-----------------|------------------|
 |-9-9-x-9-9-9-x-9-|-9-9-x-9-9-9-x-9-|-9-9-x-9-9-9-x-9-|-9-9-x-9-9-9-x-9--|
 |-7-7-x-7-x-x-x-x-|-x-x-x-x-x-x-x-x-|-7-7-x-7-x-x-x-x-|-x-x-x-x-x-x-x-x--|
 |---------7-7---7-|-9-9---9-5-5---5-|---------7-7---7-|-9-9---9-5-5---5--|

[E] [F#] [G#] [F#]  
[E] [E] [E] [E] [E] [E] [E] [E] [E] [E] [E] [E] [E] [E] [E] [E]  
 
 |--------------------|-----------------------|
 |--------------------|-----------------------|
 |-9-9---9-11-11---11-|-13-13---13-11-11---11-|
 |-x-x-x-x--x--x-x--x-|--x--x-x--x--x--x-x--x-|
 |-7-7-x-7--9--9-x--9-|-11-11-x-11--9--9-x--9-|
 |--------------------|-----------------------|

|
| E E E E E E E E E E E E E E E E
 
 |--------------------|-----------------------|
 |--------------------|-----------------------|
 |--------------------|-----------------------|
 |-9-9-x-9--9--9-x--9-|--9--9-x--9--9--9-x--9-|
 |-7-7-x-7--x--x-x--x-|--x--x-x--x--x--x-x--x-|
 |----------7--7----7-|--9--9----9--5--5----5-|

[E5]Q E E [B5]Q E E [A5]Q H Q +Q H.
 
 |---------------|----------------|-------------||
 |---------------|----------------|-------------||
 |-9-------------|----------------|-------------||
 |-9--x-x-9------|------------9---|-(9)--(9)----||
 |-7--x-x-9--x-x-|-7---7-----(7)--|-(7)---7-----||
 |--------7--x-x-|-5--(5)----(5)--|-(5)--(5)----||

|
| Q E E Q E E W +W
 
 |---------------|----------------|-------------||
 |---------------|----------------|-------------||
 |-9-------------|----------------|-------------||
 |-9--x-x-9------|-7--------------|-(7)---------||
 |-7--x-x-9--x-x-|-7--------------|-(7)---------||
 |--------7--x-x-|-5--------------|-(5)---------||

Verse
[E5]Gtr I[B/Eb] [C#5] [B5]
 
 PM| PM--| PM----| PM--| PM----| PM--| PM----| PM--| PM

[E] [E] [E] [E] [E] [E] [E] [E] [E] [E] [E] [E] [E] [E] [E] [E] [E] [E] [E] [E] [E] [E] [E] [E] [E] [E] [E] [E] [E] [E] [E] [E]  
 
 ||------------------|-----------------|-----------------|-----------------|
 ||o-----------------|-----------------|-----------------|-----------------|
 ||------------------|-----4-------4---|-----6-------6---|-----4-------4---|
 ||------2-------2---|-4-4-4---4-4-4---|-6-6-6---6-6-6---|-4-4-4---4-4-4---|
 ||o-2-2-2---2-2-2---|-2-2-2-2-2-2-2-2-|-4-4-4-4-4-4-4-4-|-2-2-2-2-2-2-2-2-|
 ||--0-0-0-0-0-0-0-0-|-----------------|-----------------|-----------------|

|
| Gtr II
 
 | PM| PM--| PM----| PM--| PM----| PM--| PM----| PM--| PM

| E E E E E E E E E E E E E E E E E E E E E E E E E E E E E E E E
 
 ||------------------|-----------------|-----------------|-----------------|
 ||o-----------------|-----------------|-----------------|-----------------|
 ||------9-------9---|-----9-------9---|-----6-------6---|-----4-------4---|
 ||--9-9-9---9-9-9---|-9-9-9---9-9-9---|-6-6-6---6-6-6---|-4-4-4---4-4-4---|
 ||o-7-7-7-7-7-7-7-7-|-6-6-6-6-6-6-6-6-|-4-4-4-4-4-4-4-4-|-2-2-2-2-2-2-2-2-|
 ||------------------|-----------------|-----------------|-----------------|

[E5]Gtr I[B5] [C#5] [E5]
 
 PM| PM--| PM----| PM--| PM----| PM--| PM

E E E E E E E E E E E E E E E E E E E E E E E E E E E E E E Q
 
 |-----------------|-----------------|-----------------|-----------------||
 |-----------------|-----------------|-----------------|-----------------||
 |-----------------|-----4-------4---|-----6-------6---|-9-9-9-9-9-------||
 |-----2-------2---|-4-4-4---4-4-4---|-6-6-6---6-6-6---|-9-9-9-9-9-------||
 |-2-2-2---2-2-2---|-2-2-2-2-2-2-2-2-|-4-4-4-4-4-4-4-4-|-7-7-7-7-7-------||
 |-0-0-0-0-0-0-0-0-|-----------------|-----------------|-----------------||

|
| Gtr II
 
 | PM| PM--| PM----| PM--| PM----| PM--| PM

| E E E E E E E E E E E E E E E E E E E E E E E E E E E E E E Q
 
 |-----------------|-----------------|-----------------|-----------------||
 |-----------------|-----------------|-----------------|-----------------||
 |-----------------|-----4-------4---|-----6-------6---|-9-9-9-9-9-------||
 |-----2-------2---|-4-4-4---4-4-4---|-6-6-6---6-6-6---|-9-9-9-9-9-------||
 |-2-2-2---2-2-2---|-2-2-2-2-2-2-2-2-|-4-4-4-4-4-4-4-4-|-7-7-7-7-7-------||
 |-0-0-0-0-0-0-0-0-|-----------------|-----------------|-----------------||

Interuption
[E5]Q Q E E E [B5]E +E E E +E E E E E [C#5]Q Q E E E [B5]E +E E E +E E E E E
 
 |---------------|---------------------|---------------|----------------------|
 |---------------|---------------------|---------------|----------------------|
 |-------------4-|-(4)-4-4-(4)-4-4-4-4-|-6--6--6-6-6-4-|-(4)-4-4-(4)-4-4-4-4--|
 |-2--2--2-2-2-4-|-(4)-4-4-(4)-4-4-4-4-|-6--6--6-6-6-4-|-(4)-4-4-(4)-4-4-4-4--|
 |-2--2--2-2-2-2-|-(2)-2-2-(2)-2-2-2-2-|-4--4--4-4-4-2-|-(2)-2-2-(2)-2-2-2-2--|
 |-0--0--0-0-0---|---------------------|---------------|----------------------|

|
| Q Q E E E E +E E E +E E E E E Q Q E E E E +E E E +E E E E E
 
 |---------------|---------------------|---------------|----------------------|
 |---------------|---------------------|---------------|----------------------|
 |-9--9--9-9-9-9-|-(9)-9-9-(9)-9-9-9-9-|-9--9--9-9-9-9-|-(9)-9-9-(9)-9-9-9-9--|
 |-x--x--x-x-x-x-|-(x)-x-x-(x)-x-x-x-x-|-x--x--x-x-x-x-|-(x)-x-x-(x)-x-x-x-x--|
 |-7--7--7-7-7-7-|-(7)-7-7-(7)-7-7-7-7-|-7--7--7-7-7-7-|-(7)-7-7-(7)-7-7-7-7--|
 |---------------|---------------------|---------------|----------------------|

Q [E5]Q E E E [B5]E +E E E +E E E E E [C#5]Q Q E E E E [E5]E E E E E E E E
 
 |---------------|---------------------|---------------|------------------||
 |---------------|---------------------|---------------|------------------||
 |-------------4-|-(4)-4-4-(4)-4-4-4-4-|-6--6--6-6-6-6-|-9-9-9-9-9-9-9-9--||
 |----2--2-2-2-4-|-(4)-4-4-(4)-4-4-4-4-|-6--6--6-6-6-6-|-9-9-9-9-9-9-9-9--||
 |----2--2-2-2-2-|-(2)-2-2-(2)-2-2-2-2-|-4--4--4-4-4-4-|-7-7-7-7-7-7-7-7--||
 |----0--0-0-0---|---------------------|---------------|------------------||

|
| Q Q E E E E +E E E +E E E E E Q Q E E E E E E E E E E E E
 
 |---------------|---------------------|---------------|------------------||
 |---------------|---------------------|---------------|------------------||
 |----9--9-9-9-9-|-(9)-9-9-(9)-9-9-9-9-|-9--9--9-9-9-9-|-9-9-9-9-9-9-9-9--||
 |----x--x-x-x-x-|-(x)-x-x-(x)-x-x-x-x-|-x--x--x-x-x-x-|-x-x-x-x-x-x-x-x--||
 |----7--7-7-7-7-|-(7)-7-7-(7)-7-7-7-7-|-7--7--7-7-7-7-|-7-7-7-7-7-7-7-7--||
 |---------------|---------------------|---------------|------------------||

Verse
[E5]PM| [B5]PM| [C#5] PM|
E E E E E E E E E E Q Q Q
 
 |-----------------|----------------------|
 |-----------------|----------------------|
 |-----9-----------|----------------------|
 |-9-9-9-------9---|-------11---11---11---|
 |-7-7-7-0-9-9-9---|-11-11-11---11---11---|
 |---------7-7-7-0-|--9--9--9----9----9---|

|
| PM| PM| PM|
| E E E E E E E E E E E E E E E E
 
 |-----------------|----------------------|
 |-----------------|----------------------|
 |-----------------|-------------9-9------|
 |-----9-----------|--------9-9-------9-9-|
 |-7-7-7-0-----9---|--7--7----------------|
 |---------7-7-7-0-|----------------------|

[E5]PM| [B5]PM| [C#5] PM|
E E E E E E E E E E Q Q Q
 
 |-----------------|-----------------------|
 |-----------------|-----------------------|
 |-----9-----------|-----------------------|
 |-9-9-9-------9---|-------11---11---11----|
 |-7-7-7-0-9-9-9---|-11-11-11---11---11----|
 |---------7-7-7-0-|--9--9--9----9----9----|

|
| PM| PM| PM|
| E E E E E E E E E E E E E E E E
 
 |-----------------|-----------------------|
 |-----------------|-----------------------|
 |-----------------|-------------9-9-------|
 |-----9-----------|--------9-9-------9-9--|
 |-7-7-7-0-----9---|--7--7-----------------|
 |---------7-7-7-0-|-----------------------|

[E5]PM| [B5]PM| [C#5] PM|[E5] [B5] [A5]
E E E E E E E E E E Q Q Q E E E E E E E E E E E E E E E E
 
 |-----------------|----------------------|-----------------|------------------||
 |-----------------|----------------------|-----------------|------------------||
 |-----9-----------|----------------------|-9-9-9-----------|------------------||
 |-9-9-9-------9---|-------11---11---11---|-9-9-9---9-9-9---|-7-7-7-7-7-7-7-7--||
 |-7-7-7-0-9-9-9---|-11-11-11---11---11---|-7-7-7-0-9-9-9---|-7-7-7-7-7-7-7-7--||
 |---------7-7-7-0-|--9--9--9----9----9---|---------7-7-7-0-|-5-5-5-5-5-5-5-5--||

|
| PM| PM| PM|
| E E E E E E E E E E E E E E E E E E E E E E E E E E E E E E E E
 
 |-----------------|----------------------|-----------------|------------------||
 |-----------------|----------------------|-----------------|------------------||
 |-----------------|-------------9-9------|-9-9-9-----------|------------------||
 |-----9-----------|--------9-9-------9-9-|-9-9-9---9-9-9---|-7-7-7-7-7-7-7-7--||
 |-7-7-7-0-----9---|--7--7----------------|-7-7-7-0-9-9-9---|-7-7-7-7-7-7-7-7--||
 |---------7-7-7-0-|----------------------|---------7-7-7-0-|-5-5-5-5-5-5-5-5--||

Chorus
[E5]Gtr I[B] [Bsus2/C#] [Asus2]
[E] [E] [E] [E] [E] [E] [E] [E] [E] [E] [E] [E] [E] [E] [E] [E]  
 
 |---------------------------------|---------------------------------|
 |---------------------------------|---------------------------------|
 |---------------------------------|---------------------------------|
 |--9---9---x---9---9---9---x---9--|--9---9---x---9---9---9---x---9--|
 |--7---7---x---7---x---x---x---x--|--x---x---x---x---x---x---x---x--|
 |------------------7---7-------7--|--9---9-------9---5---5-------5--|

|
| Gtr II
| E E E E E E E E E E E E E E E E
 
 |---------------------------------|---------------------------------|
 |---------------------------------|---------------------------------|
 |-(9)p(8)-(9)p(8)-(9)p(8)-(9)p(8)-|-(9)p(8)-(9)p(8)-(9)p(8)-(9)p(8)-|
 |---------------------------------|---------------------------------|
 |---------------------------------|---------------------------------|
 |---------------------------------|---------------------------------|

|
| Gtr III
| E E E E E E E E E E E E E E E E
 
 |---------------------------------|---------------------------------|
 |---------------------------------|---------------------------------|
 |--9---9---x---9------------------|---------------------------------|
 |--9---9---x---9---9---9---x---9--|-11--11---x--11---7---7---x---7--|
 |--7---7---x---7---9---9---x---9--|-11--11---x--11---7---7---x---7--|
 |------------------7---7---x---7--|--9---9---x---9---5---5---x---5--|

[E5] [B] [Bsus2/C#] [Asus2] 
[E] [E] [E] [E] [E] [E] [E] [E] [E] [E] [E] [E] [E] [E] [E] [E]  
 
 |---------------------------------|----------------------------------|
 |---------------------------------|----------------------------------|
 |---------------------------------|----------------------------------|
 |--9---9---x---9---9---9---x---9--|--9---9---x---9---9---9---x---9---|
 |--7---7---x---7---x---x---x---x--|--x---x---x---x---x---x---x---x---|
 |------------------7---7-------7--|--9---9-------9---5---5-------5---|

|
| E E E E E E E E E E E E E E E E
 
 |---------------------------------|----------------------------------|
 |---------------------------------|----------------------------------|
 |-(9)p(8)-(9)p(8)-(9)p(8)-(9)p(8)-|-(9)p(8)-(9)p(8)-(9)p(8)-(9)p(8)--|
 |---------------------------------|----------------------------------|
 |---------------------------------|----------------------------------|
 |---------------------------------|----------------------------------|

|
| E E E E E E E E E E E E E E E E
 
 |---------------------------------|----------------------------------|
 |---------------------------------|----------------------------------|
 |--9---9---x---9------------------|----------------------------------|
 |--9---9---x---9---9---9---x---9--|-11--11---x--11---7---7---x---7---|
 |--7---7---x---7---9---9---x---9--|-11--11---x--11---7---7---x---7---|
 |------------------7---7---x---7--|--9---9---x---9---5---5---x---5---|

[E] [F#] [G#] [F#]  
[E] [E] [E] [E] [E] [E] [E] [E] [E] [E] [E] [E] [E] [E] [E] [E]  
 
 |--------------------|-----------------------|
 |--------------------|-----------------------|
 |-9-9---9-11-11---11-|-13-13---13-11-11---11-|
 |-x-x-x-x--x--x-x--x-|--x--x-x--x--x--x-x--x-|
 |-7-7-x-7--9--9-x--9-|-11-11-x-11--9--9-x--9-|
 |--------------------|-----------------------|

|
| E E E E E E E E E E E E E E E E
 
 |--------------------|-----------------------|
 |--------------------|-----------------------|
 |--------------------|-----------------------|
 |-9-9-x-9--9--9-x--9-|--9--9-x--9--9--9-x--9-|
 |-7-7-x-7--x--x-x--x-|--x--x-x--x--x--x-x--x-|
 |----------7--7----7-|--9--9----9--5--5----5-|

|
| E E E E E E E E E E E E E E E E
 
 |--------------------|-----------------------|
 |--------------------|-----------------------|
 |-9-9-x-9------------|-----------------------|
 |-9-9-x-9--9--9-x--9-|-11-11-x-11--7--7-x--7-|
 |-7-7-x-7--9--9-x--9-|-11-11-x-11--7--7-x--7-|
 |----------7--7-x--7-|--9--9-x--9--5--5-x--5-|

[E5] [B5] [B5] [A5]PM----|
Q E E Q E E E E E E E E Q
 
 |---------------|------------------|
 |---------------|------------------|
 |-9-------------|------------------|
 |-9--x-x-9------|---------7--------|
 |-7--x-x-9--x-x-|-7-7-7-7-7--------|
 |--------7--x-x-|-5-5-5-5-5--------|

|
| PM|
| Q E E Q E E E E E E E E E E
 
 |---------------|------------------|
 |---------------|------------------|
 |-9-------------|------------------|
 |-9--x-x-9------|---------9-9------|
 |-7--x-x-9--x-x-|-----7-7-----7-7--|
 |--------7--x-x-|-5-5--------------|

|
| PM----|
| Q E E Q E E E E E E E E Q
 
 |---------------|------------------|
 |---------------|------------------|
 |-9-------------|------------------|
 |-9--x-x-9------|---------7--------|
 |-7--x-x-9--x-x-|-7-7-7-7-7--------|
 |--------7--x-x-|-5-5-5-5-5--------|

[E5] [B] [Bsus2/C#] [Asus2] 
[E] [E] [E] [E] [E] [E] [E] [E] [E] [E] [E] [E] [E] [E] [E] [E]  
 
 |---------------------------------|---------------------------------|
 |---------------------------------|---------------------------------|
 |---------------------------------|---------------------------------|
 |--9---9---x---9---9---9---x---9--|--9---9---x---9---9---9---x---9--|
 |--7---7---x---7---x---x---x---x--|--x---x---x---x---x---x---x---x--|
 |------------------7---7-------7--|--9---9-------9---5---5-------5--|

|
| E E E E E E E E E E E E E E E E
 
 |---------------------------------|---------------------------------|
 |---------------------------------|---------------------------------|
 |-(9)p(8)-(9)p(8)-(9)p(8)-(9)p(8)-|-(9)p(8)-(9)p(8)-(9)p(8)-(9)p(8)-|
 |---------------------------------|---------------------------------|
 |---------------------------------|---------------------------------|
 |---------------------------------|---------------------------------|

|
| E E E E E E E E E E E E E E E E
 
 |---------------------------------|---------------------------------|
 |---------------------------------|---------------------------------|
 |--9---9---x---9------------------|---------------------------------|
 |--9---9---x---9---9---9---x---9--|-11--11---x--11---7---7---x---7--|
 |--7---7---x---7---9---9---x---9--|-11--11---x--11---7---7---x---7--|
 |------------------7---7---x---7--|--9---9---x---9---5---5---x---5--|

[E5] [B] [Bsus2/C#] [Asus2] 
[E] [E] [E] [E] [E] [E] [E] [E] [E] [E] [E] [E] [E] [E] [E] [E]  
 
 |---------------------------------|----------------------------------|
 |---------------------------------|----------------------------------|
 |---------------------------------|----------------------------------|
 |--9---9---x---9---9---9---x---9--|--9---9---x---9---9---9---x---9---|
 |--7---7---x---7---x---x---x---x--|--x---x---x---x---x---x---x---x---|
 |------------------7---7-------7--|--9---9-------9---5---5-------5---|

|
| E E E E E E E E E E E E E E E E
 
 |---------------------------------|----------------------------------|
 |---------------------------------|----------------------------------|
 |-(9)p(8)-(9)p(8)-(9)p(8)-(9)p(8)-|-(9)p(8)-(9)p(8)-(9)p(8)-(9)p(8)--|
 |---------------------------------|----------------------------------|
 |---------------------------------|----------------------------------|
 |---------------------------------|----------------------------------|

|
| E E E E E E E E E E E E E E E E
 
 |---------------------------------|----------------------------------|
 |---------------------------------|----------------------------------|
 |--9---9---x---9------------------|----------------------------------|
 |--9---9---x---9---9---9---x---9--|-11--11---x--11---7---7---x---7---|
 |--7---7---x---7---9---9---x---9--|-11--11---x--11---7---7---x---7---|
 |------------------7---7---x---7--|--9---9---x---9---5---5---x---5---|

[E] [F#] [G#] [F#]  
[E] [E] [E] [E] [E] [E] [E] [E] [E] [E] [E] [E] [E] [E] [E] [E]  
 
 |--------------------|-----------------------|
 |--------------------|-----------------------|
 |-9-9---9-11-11---11-|-13-13---13-11-11---11-|
 |-x-x-x-x--x--x-x--x-|--x--x-x--x--x--x-x--x-|
 |-7-7-x-7--9--9-x--9-|-11-11-x-11--9--9-x--9-|
 |--------------------|-----------------------|

|
| E E E E E E E E E E E E E E E E
 
 |--------------------|-----------------------|
 |--------------------|-----------------------|
 |--------------------|-----------------------|
 |-9-9-x-9--9--9-x--9-|--9--9-x--9--9--9-x--9-|
 |-7-7-x-7--x--x-x--x-|--x--x-x--x--x--x-x--x-|
 |----------7--7----7-|--9--9----9--5--5----5-|

|
| E E E E E E E E E E E E E E E E
 
 |--------------------|-----------------------|
 |--------------------|-----------------------|
 |-9-9-x-9------------|-----------------------|
 |-9-9-x-9--9--9-x--9-|-11-11-x-11--7--7-x--7-|
 |-7-7-x-7--9--9-x--9-|-11-11-x-11--7--7-x--7-|
 |----------7--7-x--7-|--9--9-x--9--5--5-x--5-|

[E5]Q E E [B5]Q [B5]E E [A5]Q H Q +Q H.
 
 |---------------|----------------|--------------||
 |---------------|----------------|-------------o||
 |-9-------------|----------------|--------------||
 |-9--x-x-9------|------------9---|-(9)--(9)-----||
 |-7--x-x-9--x-x-|-7---7-----(7)--|-(7)---7-----o||
 |--------7--x-x-|-5--(5)----(5)--|-(5)--(5)-----||

|
| Q E E Q E E W +W
 
 |---------------|----------------|--------------||
 |---------------|----------------|-------------o||
 |-9-------------|----------------|--------------||
 |-9--x-x-9------|-7--------------|-(7)----------||
 |-7--x-x-9--x-x-|-7--------------|-(7)---------o||
 |--------7--x-x-|-5--------------|-(5)----------||

|
| Q E E Q E E W +W
 
 |---------------|----------------|--------------||
 |---------------|----------------|-------------o||
 |-9-------------|----------------|--------------||
 |-9--x-x-9------|-7--------------|-(7)----------||
 |-7--x-x-9--x-x-|-7--------------|-(7)---------o||
 |--------7--x-x-|-5--------------|-(5)----------||

Heavy Part
[E5]Gtr I[B5] [C#5] [B5]
E E E E E E E E E E E E E E E E E E E E E E E E E E E E E E E E 3x
 
 ||------------------|-----------------|-----------------|------------------||
 ||o-----------------|-----------------|-----------------|-----------------o||
 ||------------------|-----------------|-----------------|------------------||
 ||------------------|-4-4---4---4---x-|-6-6---6---6---x-|-x-4---4---4---4--||
 ||o-2-2---2---2---x-|-2-2---2---2---x-|-4-4---4---4---x-|-x-2---2---2---2-o||
 ||--0-0---0---0---x-|-----------------|-----------------|------------------||

|
| Gtr II
| E E E E E E E E E E E E E E E E E E E E E E E E E E E E E E E E 3x
 
 ||------------------|-----------------|-----------------|------------------||
 ||o-----------------|-----------------|-----------------|-----------------o||
 ||------------------|-----------------|-----------------|------------------||
 ||------------------|-4-4---4---4---x-|-6-6---6---6---x-|-x-4---4---4---4--||
 ||o-2-2---2---2---x-|-2-2---2---2---x-|-4-4---4---4---x-|-x-2---2---2---2-o||
 ||--0-0---0---0---x-|-----------------|-----------------|------------------||

[E5]E E E E E E E E [B5]E E E E E E E E [C#5]E E E E E E E E [B5]Q E E [A5]Q E E
 
 |-----------------|-----------------|-----------------|----------------||
 |-----------------|-----------------|-----------------|----------------||
 |-----------------|-----------------|-----------------|----------------||
 |-----------------|-4-4---4---4---x-|-6-6---6---6---x-|-4--x-x-2--x-x--||
 |-2-2---2---2---x-|-2-2---2---2---x-|-4-4---4---4---x-|-2--x-x-0--x-x--||
 |-0-0---0---0---x-|-----------------|-----------------|----------------||

|
| E E E E E E E E E E E E E E E E E E E E E E E E Q E E Q E E
 
 |-----------------|-----------------|-----------------|----------------||
 |-----------------|-----------------|-----------------|----------------||
 |-----------------|-----------------|-----------------|-9------9-------||
 |-----------------|-4-4---4---4---x-|-6-6---6---6---x-|-x--x-x-x--x-x--||
 |-2-2---2---2---x-|-2-2---2---2---x-|-4-4---4---4---x-|-7--x-x-7--x-x--||
 |-0-0---0---0---x-|-----------------|-----------------|----------------||

Interlude
[E5]W +W +W +W
 
 |----------|------------|------------|--------|
 |----------|------------|------------|--------|
 |----------|------------|------------|--------|
 |----------|------------|------------|--------|
 |-2--------|-(2)--------|-(2)--------|-(2)----|
 |-0--------|-(0)--------|-(0)--------|-(0)----|

|
| W +W +W +W
 
 |----------|------------|------------|--------|
 |----------|------------|------------|--------|
 |-9--------|-(9)--------|-(9)--------|-(9)----|
 |-x--------|-(x)--------|-(x)--------|-(x)----|
 |-7--------|-(7)--------|-(7)--------|-(7)----|
 |----------|------------|------------|--------|

[E5]~~~~~~~~[B5]~~~~~~~~~~[C#5]~~~~~~~~~~~~[A5]~~~~~~
+W +W Q Q Q Q Q Q Q Q
 
 |------------|------------|-----------------|----------------------||
 |------------|------------|-----------------|----------------------||
 |------------|------------|-----------------|----------------------||
 |------------|------------|-----------------|----------------------||
 |-(2)--------|-(2)--------|-xs==xs==xs==x---|--xs====xs===xs==x----||
 |-(0)--------|-(0)--------|-xs==xs==xs==x---|--xs====xs===xs==x----||

|
 
 | PM----------------------------------|

| W +W E E E E E E E E E E E E E E E E
 
 |------------|------------|-----------------|----------------------||
 |------------|------------|-----------------|----------------------||
 |--9---------|-(9)--------|-----------------|----------------------||
 |--9---------|-(9)--------|-9-9-9-9---------|----------------------||
 |--7---------|-(7)--------|-7-7-7-7-9-9-9-9-|-11-11-11-11-7-7-7-7--||
 |------------|------------|---------7-7-7-7-|--9--9--9--9-5-5-5-5--||

Final Chorus
[E5]Gtr I[B] [Bsus2/C#] [Asus2]
[E] [E] [E] [E] [E] [E] [E] [E] [E] [E] [E] [E] [E] [E] [E] [E]  
 
 |---------------------------------|---------------------------------|
 |---------------------------------|---------------------------------|
 |---------------------------------|---------------------------------|
 |--9---9---x---9---9---9---x---9--|--9---9---x---9---9---9---x---9--|
 |--7---7---x---7---x---x---x---x--|--x---x---x---x---x---x---x---x--|
 |------------------7---7-------7--|--9---9-------9---5---5-------5--|

|
| Gtr II
| E E E E E E E E E E E E E E E E
 
 |---------------------------------|---------------------------------|
 |---------------------------------|---------------------------------|
 |-(9)p(8)-(9)p(8)-(9)p(8)-(9)p(8)-|-(9)p(8)-(9)p(8)-(9)p(8)-(9)p(8)-|
 |---------------------------------|---------------------------------|
 |---------------------------------|---------------------------------|
 |---------------------------------|---------------------------------|

|
| Gtr III
| E E E E E E E E E E E E E E E E
 
 |---------------------------------|---------------------------------|
 |---------------------------------|---------------------------------|
 |--9---9---x---9------------------|---------------------------------|
 |--9---9---x---9---9---9---x---9--|-11--11---x--11---7---7---x---7--|
 |--7---7---x---7---9---9---x---9--|-11--11---x--11---7---7---x---7--|
 |------------------7---7---x---7--|--9---9---x---9---5---5---x---5--|

[E5] [B] [Bsus2/C#] [Asus2] 
[E] [E] [E] [E] [E] [E] [E] [E] [E] [E] [E] [E] [E] [E] [E] [E]  
 
 |---------------------------------|----------------------------------|
 |---------------------------------|----------------------------------|
 |---------------------------------|----------------------------------|
 |--9---9---x---9---9---9---x---9--|--9---9---x---9---9---9---x---9---|
 |--7---7---x---7---x---x---x---x--|--x---x---x---x---x---x---x---x---|
 |------------------7---7-------7--|--9---9-------9---5---5-------5---|

|
| E E E E E E E E E E E E E E E E
 
 |---------------------------------|----------------------------------|
 |---------------------------------|----------------------------------|
 |-(9)p(8)-(9)p(8)-(9)p(8)-(9)p(8)-|-(9)p(8)-(9)p(8)-(9)p(8)-(9)p(8)--|
 |---------------------------------|----------------------------------|
 |---------------------------------|----------------------------------|
 |---------------------------------|----------------------------------|

|
| E E E E E E E E E E E E E E E E
 
 |---------------------------------|----------------------------------|
 |---------------------------------|----------------------------------|
 |--9---9---x---9------------------|----------------------------------|
 |--9---9---x---9---9---9---x---9--|-11--11---x--11---7---7---x---7---|
 |--7---7---x---7---9---9---x---9--|-11--11---x--11---7---7---x---7---|
 |------------------7---7---x---7--|--9---9---x---9---5---5---x---5---|

[E] [F#] [G#] [F#]  
[E] [E] [E] [E] [E] [E] [E] [E] [E] [E] [E] [E] [E] [E] [E] [E]  
 
 |--------------------|-----------------------|
 |--------------------|-----------------------|
 |-9-9---9-11-11---11-|-13-13---13-11-11---11-|
 |-x-x-x-x--x--x-x--x-|--x--x-x--x--x--x-x--x-|
 |-7-7-x-7--9--9-x--9-|-11-11-x-11--9--9-x--9-|
 |--------------------|-----------------------|

|
| E E E E E E E E E E E E E E E E
 
 |--------------------|-----------------------|
 |--------------------|-----------------------|
 |--------------------|-----------------------|
 |-9-9-x-9--9--9-x--9-|--9--9-x--9--9--9-x--9-|
 |-7-7-x-7--x--x-x--x-|--x--x-x--x--x--x-x--x-|
 |----------7--7----7-|--9--9----9--5--5----5-|

|
| E E E E E E E E E E E E E E E E
 
 |--------------------|-----------------------|
 |--------------------|-----------------------|
 |-9-9-x-9------------|-----------------------|
 |-9-9-x-9--9--9-x--9-|-11-11-x-11--7--7-x--7-|
 |-7-7-x-7--9--9-x--9-|-11-11-x-11--7--7-x--7-|
 |----------7--7-x--7-|--9--9-x--9--5--5-x--5-|

[E5] [B5] [A5]PM----|
Q E E Q E E E E E E E E Q
 
 |---------------|------------------|
 |---------------|------------------|
 |-9-------------|------------------|
 |-9--x-x-9------|---------7--------|
 |-7--x-x-9--x-x-|-7-7-7-7-7--------|
 |--------7--x-x-|-5-5-5-5-5--------|

|
| PM|
| Q E E Q E E E E E E E E E E
 
 |---------------|------------------|
 |---------------|------------------|
 |-9-------------|------------------|
 |-9--x-x-9------|---------9-9------|
 |-7--x-x-9--x-x-|-----7-7-----7-7--|
 |--------7--x-x-|-5-5--------------|

|
| PM----|
| Q E E Q E E E E E E E E Q
 
 |---------------|------------------|
 |---------------|------------------|
 |-9-------------|------------------|
 |-9--x-x-9------|---------7--------|
 |-7--x-x-9--x-x-|-7-7-7-7-7--------|
 |--------7--x-x-|-5-5-5-5-5--------|

[E5] [B] [Bsus2/C#] [Asus2]  
[E] [E] [E] [E] [E] [E] [E] [E] [E] [E] [E] [E] [E] [E] [E] [E]  
 
 |-----------------|----------------------|
 |-----------------|----------------------|
 |-----------------|----------------------|
 |-9-9-x-9-9-9-x-9-|--9--9-x--9-9--9--x-9-|
 |-7-7-x-7-x-x-x-x-|--x--x-x--x-x--x--x-x-|
 |---------7-7---7-|--9--9----9-5--5----5-|

|
| PM| PM| PM
| E E E E E E E E E E E E E +E E E
 
 |-----------------|----------------------|
 |-----------------|----------------------|
 |---------9-9-----|----------------------|
 |-----9-9-----9-9-|-------7----7-(7)-7-6-|
 |-7-7-------------|--7--7----7-----------|
 |-----------------|----------------------|

|
| E E E E E E E E E E E E E E E E
 
 |-----------------|----------------------|
 |-----------------|----------------------|
 |-9-9-x-9---------|----------------------|
 |-9-9-x-9-9-9-x-9-|-11-11-x-11-7--7--x-7-|
 |-7-7-x-7-9-9-x-9-|-11-11-x-11-7--7--x-7-|
 |---------7-7-x-7-|--9--9-x--9-5--5--x-5-|

[E5] [B] [Bsus2/C#] [Asus2]  
[E] [E] [E] [E] [E] [E] [E] [E] [E] [E] [E] [E] [E] [E] [E] [E]  
 
 |-----------------|-----------------------|
 |-----------------|-----------------------|
 |-----------------|-----------------------|
 |-9-9-x-9-9-9-x-9-|--9--9-x--9-9--9--x-9--|
 |-7-7-x-7-x-x-x-x-|--x--x-x--x-x--x--x-x--|
 |---------7-7---7-|--9--9----9-5--5----5--|

|
| PM| PM| PM
| E E E E E E E E E E E E E +E E E
 
 |-----------------|-----------------------|
 |-----------------|-----------------------|
 |---------9-9-----|-----------------------|
 |-----9-9-----9-9-|-------7----7-(7)-7-6--|
 |-7-7-------------|--7--7----7------------|
 |-----------------|-----------------------|

|
| E E E E E E E E E E E E E E E E
 
 |-----------------|-----------------------|
 |-----------------|-----------------------|
 |-9-9-x-9---------|-----------------------|
 |-9-9-x-9-9-9-x-9-|-11-11-x-11-7--7--x-7--|
 |-7-7-x-7-9-9-x-9-|-11-11-x-11-7--7--x-7--|
 |---------7-7-x-7-|--9--9-x--9-5--5--x-5--|

[E5]E E E E [B]E E E E [Bsus2/C#] E E E E [Asus2]E E E E [E5]Q E E [B5]Q E E [A5]W
 
 |-----------------|----------------------|---------------|-----------------|
 |-----------------|----------------------|---------------|-----------------|
 |-----------------|----------------------|-9-------------|-----------------|
 |-9-9-x-9-9-9-x-9-|--9--9-x--9-9--9--x-9-|-9--x-x-9------|-7---------------|
 |-7-7-x-7-x-x-x-x-|--x--x-x--x-x--x--x-x-|-7--x-x-9--x-x-|-7---------------|
 |---------7-7---7-|--9--9----9-5--5----5-|--------7--x-x-|-5---------------|

|
| PM| PM| PM
| E E E E E E E E E E E E E +E E E H Q Q Q H Q
 
 |-----------------|----------------------|---------------|-----------------|
 |-----------------|----------------------|---------------|-----------------|
 |---------9-9-----|----------------------|---------------|-----------------|
 |-----9-9-----9-9-|-------7----7-(7)-7-6-|-7------6------|------------9----|
 |-7-7-------------|--7--7----7-----------|-----------7---|-7---7-----(7)---|
 |-----------------|----------------------|---------------|-5--(5)----(5)---|

|
| >
| E E E E E E E E E E E E E E E E Q E E Q E E W
 
 |-----------------|----------------------|---------------|-----------------|
 |-----------------|----------------------|---------------|-----------------|
 |-9-9-x-9---------|----------------------|-9-------------|-----------------|
 |-9-9-x-9-9-9-x-9-|-11-11-x-11-7--7--x-7-|-9--x-x-9------|-7---------------|
 |-7-7-x-7-9-9-x-9-|-11-11-x-11-7--7--x-7-|-7--x-x-9--x-x-|-7---------------|
 |---------7-7-x-7-|--9--9-x--9-5--5--x-5-|--------7--x-x-|-5---------------|

+W +W +W
 
 |---------------|------------|--------*|
 |---------------|------------|--------*|
 |---------------|------------|--------*|
 |-(7)-----------|-(7)--------|-(7)----*|
 |-(7)-----------|-(7)--------|-(7)----*|
 |-(5)-----------|-(5)--------|-(5)----*|

|
| +Q H. +W +W
 
 |---------------|------------|--------*|
 |---------------|------------|--------*|
 |---------------|------------|--------*|
 |-(9)--(9)------|-(9)--------|-(9)----*|
 |-(7)---7-------|-(7)--------|-(7)----*|
 |-(5)--(5)------|-(5)--------|-(5)----*|
 --------------------------------------------------------------------------------

Duration Legend
 
 ---------------
 W - whole; H - half; Q - quarter; E - 8th; S - 16th; T - 32nd; X - 64th; a - acciaccatura

+ - note tied to previous; . - note dotted; .. - note double dotted
Uncapitalized letters represent notes that are staccato (1/2 duration)
Irregular groupings are notated above the duration line
Duration letters will always appear directly above the note/fret number it represents the
duration for. Duration letters with no fret number below them represent rests. Multi-
bar rests are notated in the form Wxn, where n is the number of bars to rest for. Low
melody durations appear below the staff
Tablature Legend
 
 ----------------

h - hammer-on
p - pull-off
b - bend
pb - pre-bend
r - bend release (if no number after the r, then release immediately)
/\ - slide into or out of (from/to "nowhere")
s - legato slide
S - shift slide
- natural harmonic
(n) - artificial harmonic
n(n) - tapped harmonic
~ - vibrato
tr - trill
T - tap
TP - trem. picking
PM - palm muting
\n/ - tremolo bar dip; n = amount to dip
\n - tremolo bar down
n/ - tremolo bar up
/n\ - tremolo bar inverted dip
= - hold bend; also acts as connecting device for hammers/pulls
- volume swell (louder/softer)
x - on rhythm slash represents muted slash
o - on rhythm slash represents single note slash
Misc Legend
 
 -----------

| - bar
|| - double bar
||o - repeat start
o|| - repeat end
*| - double bar (ending)
: - bar (freetime)
$ - Segno
& - Coda
Tempo markers - = BPM(8/16=s8/s16), where s8 = swing 8ths, s16 = swing 16ths

Important: The song above is NOT stored on the Chordie server. The original song is hosted at www.guitaretab.com. Chordie works as a search engine and provides on-the-fly formatting. Chordie does not index songs against artists'/composers' will. To remove this song please click here.

Text color:
Chord color:
Chord grids: 
Font size:    
Page size: 

A5 Asus2 B B5 Bsus2/C# C#5 E E5 F# G#
Rate #2 of 3 versions

Jango Player

Login - add to songbook

SHARE PAGE  



You need to log in to post comments