Guitar Tabs, Chords and Lyrics
Update 25:10. 13:00. Site is back up running again. Songbooks are recovered. Woring on getting search back up..


Your Biggest Mistake  New Found Glory

Catalyst
2004 Geffen records
Submitted by: paramore_fans@yahoo.com
I'm so sick of the wrong tabs for it, how many times I would have to tell them that this
is not in a Drop D tuning, It's in the standard. This is the right one.
Tuning: Standard EADGBe
Chords used:
E - 022100
[G#m]C#m [-]- [466444]x46654
A - x02220
D - xx0232
C - x32010
B - x24442
Intro: D
then
Guitar 1: E-G#m-C#m-A (x4)
Guitar 2:
 
 e|------------------------------|
 B|------------------------------|
 G|-1h2-1h2-------1h2-1h2---1----|
 D|---------4-2-----------4---2--| (x2)
 A|-------------2----------------|
 E|------------------------------|

Guitar 3:
 
 e|-4h5-4h5-2-0---4h5-4h5-2-4-0--|
 B|-------------0----------------|
 G|------------------------------|
 D|------------------------------| (x2)
 A|------------------------------|
 E|------------------------------|

then
Guitar 1: E--A (x2)
Guitar 2:
 
 E|-------------------------|
 B|-------------------------|
 G|-----1---1-------1---1---|
 D|---2---2---2---2---2---2-| (x2)
 A|-2-----------0-----------|
 E|-------------------------|

Verse 1:
[E] What do you [C#m]think inside your [D]head (I [A]wanna know)
[E] So you think [C#m]that this could end [D]up ([A]breaking you)
And your [E]life is a timebomb [C#m]set to explode
You [D]talk out your ass and [A]everyone knows
For [E]once you should listen or [C#m]care what I think
Or [D]I'll be gone be[A]fore you can blink
Chorus:
[E] [G#m] [C#m] [A] [E] [G#m]  
E[A]ve[E]ryones told you over and over a-gain
[G#m] [C#m] [A] [F#m] [G#m] [A]  
You're [E]making the biggest mis-take of your life
(Repeat)
Verse 2:
[E] Everyone [C#m]knows that your a[D]fraid of ([A]missing out)
[E] And I know [C#m]that its hard for [D]you to ([A]swallow down)
A [E]world you created [C#m]set to explode
You [D]lie through your teeth and [A]everyone knows
For [E]once you should take what im [C#m]willing to give
Or [D]you'll stay stuck in the [A]web that you're trapped in
(Repeat Chorus except last line)
[G#m] [C#m] [A] [F#m] [G#m] [A]  
You're [E]maki[C]ng the biggest mis-take of your life
Interlude:
 
 Guitar 1: E--D--A--D (x2)

Guitar 2: Solo
 
 e|-2h4-2-0-0-----0---2-0-----0-2h4-2-0-0-----0-7p4p0-7p4p0-|
 B|-----------0-3---0-----3-4-------------0-2---------------|
 G|---------------------------------------------------------|
 D|---------------------------------------------------------|
 A|---------------------------------------------------------|
 E|---------------------------------------------------------|

Bridge:
It's a [E]chance[D] (what a [A]chance)[D]
you should [E]take[D] (you [A]take)[D]
And I [E]know its [D]not an [A]easy [D]one to [E]make
 
 B E--A--E--A

You should trust the ones that are closest to you
Guitar 2:
 
 E|-------------------------|
 B|-------------------------|
 G|-----1---1-------1---1---|
 D|---2---2---2---2---2---2-| (x2)
 A|-2-----------0-----------|
 E|-------------------------|

(Repeat Chorus)
(Repeat later parts of Intro)

Important: The song above is NOT stored on the Chordie server. The original song is hosted at www.guitaretab.com. Chordie works as a search engine and provides on-the-fly formatting. Chordie does not index songs against artists'/composers' will. To remove this song please click here.

Text color:
Chord color:
Chord grids: 
Font size:    
Page size: 

A C C#m D E F#m G#m
Rate #3 of 7 versions

Login - add to songbook

SHARE PAGE  



You need to log in to post comments