Guitar Tabs, Chords and Lyrics
Server problems seems to be fixed. Chordie has been experiencing problems with songs disappearing. These issues now seems to be fixed, but still verifying the fix. If you find anything strange, please email admin@chordie.com.


So Much  Newton Faulkner

xxxxxxxxxxxxxxxxxxxxxxxxxxxxxxxxxxxxxxxxxxxxxxxxxxxxxxxxxxxxxxxxxxxxxxxxxxxxxxxxxxxxxxxxxxxxxxx
S o M u c h
R e b u i l t B y H u m a n s ( 2 0 0 9 )
N E W T O N F A U L K N E R
xxxxxxxxxxxxxxxxxxxxxxxxxxxxxxxxxxxxxxxxxxxxxxxxxxxxxxxxxxxxxxxxxxxxxxxxxxxxxxxxxxxxxxxxxxxxxxx
 
 +--------------------------PLEASE NOTE--------------------------+

+ This file is the work of Jordan Lapping and represents his +
+ transcription of the song. You may only use this file for +
+ private study, scholarship, or research. The contents may not +
+ be duplicated for use with other websites without written +
+ permission. Thank you for understanding. Enjoy. +
 
 +---------------------------------------------------------------+

Tabbed by Jordan Lapping
Tuning: Standard
(Guitar tuned down a half-step to match recording)
INTRO:
[G] [Csus2]  
 
 e]||------3---2---0---|-----3---2---0---|-----3---2---0---|-----3---2---0----||
 B]||------3---3---3---|-----3---3-----3-|-----3---3---3---|-----3---3-----3--||
 G]||------------------|-----------------|-----------------|------------------||
 D]||------------------|-----------------|-----------------|------------------|| (x2)
 A]||------------------|-----------------|-3-3-3-3-3-3-3-3-|-3-3-3-3-3-3-3----||
 E]||--3-3-3-3-3-3-3-3-|-3-3-3-3-3-3-3---|-----------------|------------------||

VERSE 1:
[G] [Csus2]  
 
 e]||------3---2---0---|-----3---2---0---|-----3---2---0---|-----3---2---0----||
 B]||------3---3---3---|-----3---3-----3-|-----3---3---3---|-----3---3-----3--||
 G]||------------------|-----------------|-----------------|------------------||
 D]||------------------|-----------------|-----------------|------------------|| (x2)
 A]||------------------|-----------------|-3-3-3-3-3-3-3-3-|-3-3-3-3-3-3-3----||
 E]||--3-3-3-3-3-3-3-3-|-3-3-3-3-3-3-3---|-----------------|------------------||

[G] I wish you could see me
[Csus2] I'm flying, still don't know h[G]ow I owe you so much
I [Csus2]guess you knew that
VERSE 2:
[G] [Csus2]  
 
 e]|------3---2---0---|-----3---2---0---|-----3---2---0---|-----3---2---0----|
 B]|------3---3---3---|-----3---3-----3-|-----3---3---3---|-----3---3-----3--|
 G]|------------------|-----------------|-----------------|------------------|
 D]|------------------|-----------------|-----------------|------------------|
 A]|------------------|-----------------|-3-3-3-3-3-3-3-3-|-3-3-3-3-3-3-3----|
 E]|--3-3-3-3-3-3-3-3-|-3-3-3-3-3-3-3---|-----------------|------------------|

[G/D] [Cadd9]  
 
 e]|------3---2---0---|-----3---2---0---|-----3---2---0---|-----3---2---0----|
 B]|------3---3---3---|-----3---3-----3-|-----3---3---3---|-----3---3-----3--|
 G]|------------------|-----------------|-----------------|------------------|
 D]|--0-0-0-0-0-0-0-0-|-0-0-0-0-0-0-0---|-----------------|------------------|
 A]|------------------|-----------------|-3-3-3-3-3-3-3-3-|-3-3-3-3-3-3-3----|
 E]|------------------|-----------------|-----------------|------------------|

[G] I know that you would be [Csus2]proud of me
I hope you [G/D]are, I owe you so much
I [Cadd9]hope you knew that
CHORUS 1:
[G/B] [Csus2]  
 
 e]||------3---2---0---|-----3---2---0---|-----3---2---0---|-----3---2---0----||
 B]||------3---3---3---|-----3---3-----3-|-----3---3---3---|-----3---3-----3--||
 G]||------------------|-----------------|-----------------|------------------||
 D]||------------------|-----------------|-----------------|------------------|| (x2)
 A]||--2-2-2-2-2-2-2-2-|-2-2-2-2-2-2-2---|-3-3-3-3-3-3-3-3-|-3-3-3-3-3-3-3----||
 E]||------------------|-----------------|-----------------|------------------||

[G] [Csus2]  
 
 e]|------------------|-----------------|-----------------|------------------|
 B]|----3---3---3---3-|---3---3---3---3-|---3---3---3---3-|------------------|
 G]|--0---2---0---2---|-0---2---0---2---|-0---2---0---2---|---0---0---0---0--|
 D]|------------------|-----------------|-----------------|------------------|
 A]|------------------|-----------------|-3-3-3-3-3-3-3-3-|-3---3---3---3----|
 E]|--3-3-3-3-3-3-3-3-|-3-3-3-3-3-3-3-3-|-----------------|------------------|

[G/B] There's so much of you in everything [(Csus2)]I do
[Csus2] Just wish that you were still around
[G/B] But I'm following through, just could do[Csus2] so much more
If you were still ar[G]ound, were still a[Csus2]round
VERSE 3:
[G] [Csus2]  
 
 e]|------3---2---0---|-----3---2---0---|-----3---2---0---|-----3---2---0----|
 B]|------3---3---3---|-----3---3-----3-|-----3---3---3---|-----3---3-----3--|
 G]|------------------|-----------------|-----------------|------------------|
 D]|------------------|-----------------|-----------------|------------------|
 A]|------------------|-----------------|-3-3-3-3-3-3-3-3-|-3-3-3-3-3-3-3----|
 E]|--3-3-3-3-3-3-3-3-|-3-3-3-3-3-3-3---|-----------------|------------------|

[G/D] [Cadd9]  
 
 e]|------3---2---0---|-----3---2---0---|-----3---2---0---|-----3---2---0----|
 B]|------3---3---3---|-----3---3-----3-|-----3---3---3---|-----3---3-----3--|
 G]|------------------|-----------------|-----------------|------------------|
 D]|--0-0-0-0-0-0-0-0-|-0-0-0-0-0-0-0---|-----------------|------------------|
 A]|------------------|-----------------|-3-3-3-3-3-3-3-3-|-3-3-3-3-3-3-3----|
 E]|------------------|-----------------|-----------------|------------------|

[G] I'm still here, still fighting
[Csus2] Still crazy, still trying,[G/D] I owe you so much
I [Cadd9]hope you knew that
CHORUS 2:
[G/B] [Csus2]  
 
 e]||------3---2---0---|-----3---2---0---|-----3---2---0---|-----3---2---0----||
 B]||------3---3---3---|-----3---3-----3-|-----3---3---3---|-----3---3-----3--||
 G]||------------------|-----------------|-----------------|------------------||
 D]||------------------|-----------------|-----------------|------------------|| (x2)
 A]||--2-2-2-2-2-2-2-2-|-2-2-2-2-2-2-2---|-3-3-3-3-3-3-3-3-|-3-3-3-3-3-3-3----||
 E]||------------------|-----------------|-----------------|------------------||

[G/B] There's so much of you in everything [(Csus2)]I do
[Csus2] Just wish that you were still around
[G/B] But I'm following through, just could do[Csus2] so much more
If you were still [(G/B)]around
BRIDGE:
[G/B] [Csus2]  
 
 e]||------------------|-----------------|-----------------|------------------||
 B]||------------------|-----------------|-----------------|------------------||
 G]||------------------|-----------------|-----------------|------------------||
 D]||------------------|-----------------|-----------------|------------------|| (x2)
 A]||--2-2-2-2-2-2-2-2-|-2-2-2-2-2-2-2-2-|-3-3-3-3-3-3-3-3-|-3-3-3-3-3-3-3-3--||
 E]||------------------|-----------------|-----------------|------------------||

[G/B] It's one thing time will not[(Csus2)] erase
[Csus2] My life would not have been the same
[G/B] I miss you, I could use a [(Csus2)]friend
[Csus2] To run some things by now and then
ALTERED CHORUS:
[G/B] [Csus2]  
 
 e]||------3---2---0---|-----3---2---0---|-----3---2---0---|-----3---2---0----||
 B]||------3---3---3---|-----3---3-----3-|-----3---3---3---|-----3---3-----3--||
 G]||------------------|-----------------|-----------------|------------------||
 D]||------------------|-----------------|-----------------|------------------|| (x2)
 A]||--2-2-2-2-2-2-2-2-|-2-2-2-2-2-2-2---|-3-3-3-3-3-3-3-3-|-3-3-3-3-3-3-3----||
 E]||------------------|-----------------|-----------------|------------------||

[G/B] [Csus2]  
 
 e]||------3---2---0---|-----3---2---0---|-----3---2---0---|-----3---2---0----|
 B]||------3---3---3---|-----3---3-----3-|-----3---3---3---|-----3---3-----3--|
 G]||------------------|-----------------|-----------------|------------------|
 D]||------------------|-----------------|-----------------|------------------|
 A]||------------------|-----------------|-3-3-3-3-3-3-3-3-|-3-3-3-3-3-3-3----|
 E]||--3-3-3-3-3-3-3-3-|-3-3-3-3-3-3-3---|-----------------|------------------|

[G/B] There's so much of you (Not have been the same)
[Csus2] In everything I do (Could use a friend)
[G/B] There's so much of you in everything [(Csus2)]I do
[Csus2] Just wish that you were still around
[G] Were still a[Csus2]round
INTERLUDE:
[G] [Csus2] [Dsus4]  
 
 e]|------3---2---0---|-----3---2---0---|-----3---2---0---|-----3---2---0----|
 B]|------3---3---3---|-----3---3-----3-|-----3---3---3---|-----3---3-----3--|
 G]|------------------|-----------------|-----------------|------------------|
 D]|------------------|-----------------|-----------------|-0-0-0-0-0-0-0----|
 A]|------------------|-----------------|-3-3-3-3-3-3-3-3-|------------------|
 E]|--3-3-3-3-3-3-3-3-|-3-3-3-3-3-3-3---|-----------------|------------------|

[G] I wish you could see me
[Csus2] I'm flying[Dsus4]
CHORUS 3:
[G/B] [Csus2]  
 
 e]||------3---2---0---|-----3---2---0---|-----3---2---0---|-----3---2---0----||
 B]||------3---3---3---|-----3---3-----3-|-----3---3---3---|-----3---3-----3--||
 G]||------------------|-----------------|-----------------|------------------||
 D]||------------------|-----------------|-----------------|------------------|| (x2)
 A]||--2-2-2-2-2-2-2-2-|-2-2-2-2-2-2-2---|-3-3-3-3-3-3-3-3-|-3-3-3-3-3-3-3----||
 E]||------------------|-----------------|-----------------|------------------||

[G/B] There's so much of you in everything [(Csus2)]I do
[Csus2] Just wish that you were still around
[G/B] But I'm following through, just could do[Csus2] so much more
If you were still [(G/B)]around
OUTRO:
[G/B] [Csus2] [G]  
 
 e]|------------------|-----------------|-----------------|-----------------|------------------|
 B]|------------------|-----------------|-----------------|-----------------|------------------|
 G]|------------------|-----------------|-----------------|-----------------|------------------|
 D]|------------------|-----------------|-----------------|-----------------|------------------|
 A]|--2-2-2-2-2-2-2-2-|-2-2-2-2-2-2-2-2-|-3-3-3-3-3-3-3-3-|-3-3-3-3-3-3-3-3-|------------------|
 E]|------------------|-----------------|-----------------|-----------------|-3----------------|

[G/B] It's one thing time will not[(Csus2)] erase
[Csus2] My life would not have been the s[G]ame
xxxxxxxxxxxxxxxxxxxxxxxxxxxxxxxxxxxxxxxxxxxxxxxxxxxxxxxxxxxxxxxxxxxxxxxxxxxxxxxxxxxxxxxxxxxxxxx
xxxxxxxxxxxxxxxxxxxxxxxxxxxxxxxxxxxxxxxxxxxxxxxxxxxxxxxxxxxxxxxxxxxxxxxxxxxxxxxxxxxxxxxxxxxxxxx

Important: The song above is NOT stored on the Chordie server. The original song is hosted at www.guitaretab.com. Chordie works as a search engine and provides on-the-fly formatting. Chordie does not index songs against artists'/composers' will. To remove this song please click here.

Text color:
Chord color:
Chord grids: 
Font size:    
Page size: 

Cadd9 Csus2 Dsus4 G G/B G/D
Rate #1 of 2 versions

Jango Player

Login - add to songbook

SHARE PAGE  




You need to log in to post comments