Guitar Tabs, Chords and Lyrics
Server problems seems to be fixed. Chordie has been experiencing problems with songs disappearing. These issues now seems to be fixed, but still verifying the fix. If you find anything strange, please email admin@chordie.com.


Align  Nina Nesbitt

Standard Tunning
[Bm7] [G] [Em7]  
 
 e---2-----3------0----|
 B---0-----3------3----|
 G---2-----0------0----|
 D---0-----0------2----|
 A---2-----2------2----|
 E---x-----3------0----|

[Bm7] [G] [D] [A]  
[Bm]Coming up to see, [G]to see what I can [D]find[A]
[Bm] ?Cause I?ve been [G]asleep and I?ve lost my[D] mind
Waiting [A]for you
 
 e----------------------------------------------------------------------|
 B------3----3-------3----3---------3-----3-----------2-----2-----------|
 G----4----4----4---0----0---0----2-----2-----2-----2-----2-------------|
 D------------------------------0-----0-----0---------------------------|
 A--2----2----2-----------------------------------0-----0---------------|
 E----------------3----3---3--------------------------------------------|

Like you [G]lost your home and the [D]shelter?s gone
You?[Em7]re stuck in the storm outside
Feels li[G]ke you?ve gone blind and you[D] can?t see life
But it?s [Em7]right before your e[A]yes
 
 e-----------------------------------------------------------------------------|
 B------3----3--------3----3--------3-----3------------3----3------------------|
 G----0----0----0---2----2----2---0-----0------------0----0--------------------|
 D----------------0----0----0---2-----2------------2----2----------------------|
 A-----------------------------------------------------------------------------|
 E--3----3----3----------------------------------------------------------------|
 e-----------------------------------------------------------------------------|
 B------3----3--------3----3--------3-----3----------2----2-----2--------------|
 G----0----0----0---2----2----2---0-----0-----0----2----2-----2----------------|
 D----------------0----0----0---2-----2-----2----------------------------------|
 A-----------------------------------------------0----0----0-------------------|
 E--3----3----3----------------------------------------------------------------|

(CHORUS)
[D]The world keeps[G] on turning
[Bm]But we?ve stopped [A]both on different sides
[D]Our hearts keep[G] on loving
[Bm] It?s only a [A]matter of space and[G] time
Till we [D]align
 
 e-------------------------------------------------------------------------------|
 B------3----3--------3----3--------3----3----------2----2-----------------------|
 G----2----2----2---0----0----0---4----4----4-----2----2----2--------------------|
 D--0----0----0------------------------------------------------------------------|
 A------------------------------2----2----2-----0----0----0----------------------|
 E----------------3----3----3----------------------------------------------------|
 e------------------------------------------------------------------------------------2---|
 B------3----3--------3----3--------3----3----------2----2-----------3----3----3------3---|
 G----2----2----2---0----0----0---4----4----4-----2----2----2------0----0----0--------2---|
 D--0----0----0-----------------------------------------------------------------------0---|
 A------------------------------2----2----2-----0----0----0-------------------------------|
 E----------------3----3----3------------------------------------3----3----3--------------|

[Bm] Coming up to [G]breathe ?cause I?ve been a long way [D]down[A]
[Bm] ?Cause when we both [G]leave, there?s words I can?t [D]find
As I watch you [A]go
 
 e----------------------------------------------------------------------|
 B------3----3-------3----3---------3-----3-----------2-----2-----------|
 G----4----4----4---0----0---0----2-----2-----2-----2-----2-------------| X2
 D------------------------------0-----0-----0---------------------------|
 A--2----2----2-----------------------------------0-----0---------------|
 E----------------3----3---3--------------------------------------------|

Like you [G]lost your home and the [D]shelter?s gone
You?[Em7]re stuck in the storm outside
Feels li[G]ke you?ve gone blind and you[D] can?t see life
But it?s [Em7]right before your e[A]yes
 
 e-----------------------------------------------------------------------------|
 B------3----3--------3----3--------3-----3------------3----3------------------|
 G----0----0----0---2----2----2---0-----0------------0----0--------------------|
 D----------------0----0----0---2-----2------------2----2----------------------|
 A-----------------------------------------------------------------------------|
 E--3----3----3----------------------------------------------------------------|
 e-----------------------------------------------------------------------------|
 B------3----3--------3----3--------3-----3----------2----2-----2--------------|
 G----0----0----0---2----2----2---0-----0-----0----2----2-----2----------------|
 D----------------0----0----0---2-----2-----2----------------------------------|
 A-----------------------------------------------0----0----0-------------------|
 E--3----3----3----------------------------------------------------------------|

(CHORUS)
[D]The world keeps[G] on turning
[Bm]But we?ve stopped [A]both on different sides
[D]Our hearts keep[G] on loving
[Bm] It?s only a [A]matter of space and[G] time
Till we ali[D]gn
 
 e-------------------------------------------------------------------------------|
 B------3----3--------3----3--------3----3----------2----2-----------------------|
 G----2----2----2---0----0----0---4----4----4-----2----2----2--------------------|
 D--0----0----0------------------------------------------------------------------|
 A------------------------------2----2----2-----0----0----0----------------------|
 E----------------3----3----3----------------------------------------------------|
 e------------------------------------------------------------------------------------2---|
 B------3----3--------3----3--------3----3----------2----2-----------3----3----3------3---|
 G----2----2----2---0----0----0---4----4----4-----2----2----2------0----0----0--------2---|
 D--0----0----0-----------------------------------------------------------------------0---|
 A------------------------------2----2----2-----0----0----0-------------------------------|
 E----------------3----3----3------------------------------------3----3----3--------------|

[A]Spinning ?round, lose control, [Bm]lost my mind
I don?t k[G]now when I?ll see you [D]again
(CHORUS)
[D]The world keeps[G] on turning
[Bm]But we?ve stopped [A]both on different sides
[D]Our hearts keep[G] on loving
[Bm] It?s only a [A]matter of space and[G] time
[D]The world keeps[G] on turning
[Bm]But we?ve stopped [A]both on different sides
[D]Our hearts keep[G] on loving
[Bm] It?s only a [A]matter of space and[G] time
Till we ali[D]gn

Important: The song above is NOT stored on the Chordie server. The original song is hosted at www.guitaretab.com. Chordie works as a search engine and provides on-the-fly formatting. Chordie does not index songs against artists'/composers' will. To remove this song please click here.

Text color:
Chord color:
Chord grids: 
Font size:    
Page size: 

A Bm Bm7 D Em7 G
Rate #1 of 3 versions

Jango Player

Login - add to songbook

SHARE PAGE  




You need to log in to post comments