Guitar Tabs, Chords and Lyrics
Major upgrade!! After one year development the new version of Chordie is now online! Please give feedback.


A Warm Place  Nine Inch Nails

As recorded by Nine Inch Nails
(From the 1994 Album THE DOWNWARD SPIRAL)
Transcribed by Lord Magness
Music by Trent Reznor
Arranged by Trent Reznor
Gtr I (E A D G B E) - 'Keyboard'
Section One
Q=70
[D5] [C5] [Bb5] [F5] 
[4/4] Gtr I
W W W W
 
 ||--5---------------|-3---------------|-1---------------|-1-----------------||
 ||o-3---------------|-1---------------|-----------------|-1----------------o||
 ||------------------|-----------------|-3---------------|-------------------||
 ||--0-0-0-0-0-0-0-0-|-----------------|-----------------|-------------------||
 ||o-----------------|-3-3-3-3-3-3-3-3-|-1-1-1-1-1-1-1-1-|------------------o||
 ||------------------|-----------------|-----------------|-1-1-1-1-1-1-1-1---||

[E] [E] [E] [E] [E] [E] [E] [E] [E] [E] [E] [E] [E] [E] [E] [E] [E] [E] [E] [E] [E] [E] [E] [E] [E] [E] [E] [E] [E] [E] [E] [E] 
Section Two
[D]Q. [Dsus2]Q. [Dm]Q [C5]Q. [Am/C]Q. [Bbsus2Bbsus2]Q
 
 ||--------------------|-3------5------6---|
 ||o-3------5------6---|-------------------|
 ||--------------------|-------------------|
 ||--0--0-0-0--0-0-0-0-|-------------------|
 ||o-------------------|-3--3-3-3--3-3-3-3-|
 ||--------------------|-------------------|

[E] [E] [E] [E] [E] [E] [E] [E] [E] [E] [E] [E] [E] [E] [E] [E] 
H +E E E E E E E E E E E E 3x
 
 |-8-------(8)-10----8-|------------------||
 |----------------10---|-----------------o||
 |---------------------|------------------||
 |---------------------|------------------||
 |---------------------|-8-8-8-8-8-8-8-8-o||
 |-6-6-6-6--6---6--6-6-|------------------||

[E] [E] [E] [E] [E] [E] [E] [E]  
Section Three
[Abmaj7]H. Q [Eb]H. Q [Abmaj7]H. Q [Eb]H. Q
 
 |-3------------4---|------------------|-3------------4---|-------------------|
 |-4----------------|-8------------9---|-4----------------|-8------------9----|
 |-5----------------|-8----------------|-5----------------|-8-----------------|
 |------------------|-8----------------|------------------|-8-----------------|
 |------------------|-6--6-6-6-6-6-6-6-|------------------|-6--6-6-6-6-6-6-6--|
 |-4--4-4-4-4-4-4-4-|------------------|-4--4-4-4-4-4-4-4-|-------------------|

[E] [E] [E] [E] [E] [E] [E] [E] [E] [E] [E] [E] [E] [E] [E] [E] [E] [E] [E] [E] [E] [E] [E] [E] [E] [E] [E] [E] [E] [E] [E] [E] 
[Cm]H. Q [Bb]W [Ab]W [Eb5]W
 
 ||--3------------4---|-6---------------|-----------------|------------------||
 ||o-4----------------|-6---------------|-4---------------|-4---------------o||
 ||--5----------------|-7---------------|-5---------------|-3----------------||
 ||-------------------|-----------------|-----------------|-1-1-1-1-1-1-1-1--||
 ||o-3--3-3-3-3-3-3-3-|-----------------|-----------------|-----------------o||
 ||-------------------|-6-6-6-6-6-6-6-6-|-4-4-4-4-4-4-4-4-|------------------||

[E] [E] [E] [E] [E] [E] [E] [E] [E] [E] [E] [E] [E] [E] [E] [E] [E] [E] [E] [E] [E] [E] [E] [E] [E] [E] [E] [E] [E] [E] [E] [E] 
Section Four
[Cm]W [Bb]W [Ab]W [Eb5]W
 
 |-----------------|-----------------|-----------------|------------------|
 |-4---------------|-3---------------|-----------------|------------------|
 |-5---------------|-3---------------|-5---------------|-3----------------|
 |-5---------------|-3---------------|-6---------------|-1-1-1-1-1-1-1-1--|
 |-3-3-3-3-3-3-3-3-|-1-1-1-1-1-1-1-1-|-6---------------|------------------|
 |-----------------|-----------------|-4-4-4-4-4-4-4-4-|------------------|

[E] [E] [E] [E] [E] [E] [E] [E] [E] [E] [E] [E] [E] [E] [E] [E] [E] [E] [E] [E] [E] [E] [E] [E] [E] [E] [E] [E] [E] [E] [E] [E] 
Outro
[C]Q. [Csus2]Q. [Cm]Q [Bb5]Q. [Gm/Bb]Q. [Absus2Absus2]Q H +E E E E E E E E E E E E
 
 |-------------------|-1------3------4---|-6-------(6)-8---6-|------------------|
 |-1------3------4---|-------------------|---------------8---|------------------|
 |-------------------|-------------------|-------------------|------------------|
 |-------------------|-------------------|-------------------|------------------|
 |-3--3-3-3--3-3-3-3-|-1--1-1-1--1-1-1-1-|-------------------|-6-6-6-6-6-6-6-6--|
 |-------------------|-------------------|-4-4-4-4--4--4-4-4-|------------------|

[E] [E] [E] [E] [E] [E] [E] [E] [E] [E] [E] [E] [E] [E] [E] [E] [E] [E] [E] [E] [E] [E] [E] [E] 
[C]Q. [Csus2]Q. [Cm]Q [Bb5]Q. [Gm/Bb]Q. [Bb]Q [Absus2]H +E E E E W
 
 |-------------------|-1------3----------|-------------------|------*|
 |-1------3------4---|-------------------|-----------------4-|------*|
 |-------------------|---------------3---|-3-------(3)-------|------*|
 |-------------------|-------------------|-------------6-5---|------*|
 |-3--3-3-3--3-3-3-3-|-1--1-1-1--1-1-1-1-|-------------------|-6----*|
 |-------------------|-------------------|-4-4-4-4--4--------|------*|

[E] [E] [E] [E] [E] [E] [E] [E] [E] [E] [E] [E] [E] [E] [E] [E] [E] [E] [E] [E] [B] 
Duration Legend
 
 ---------------
 W - whole; H - half; Q - quarter; E - 8th; S - 16th; T - 32nd; X - 64th; a - acciaccatura

+ - note tied to previous; . - note dotted; .. - note double dotted
Uncapitalized letters represent notes that are staccato (1/2 duration)
Irregular groupings are notated above the duration line
Duration letters will always appear directly above the note/fret number it represents the
duration for. Duration letters with no fret number below them represent rests. Multi-
bar rests are notated in the form Wxn, where n is the number of bars to rest for. Low
melody durations appear below the staff
Tablature Legend
 
 ----------------

h - hammer-on
p - pull-off
b - bend
pb - pre-bend
r - bend release (if no number after the r, then release immediately)
/\ - slide into or out of (from/to "nowhere")
s - legato slide
S - shift slide
- natural harmonic
(n) - artificial harmonic
n(n) - tapped harmonic
~ - vibrato
tr - trill
T - tap
TP - trem. picking
PM - palm muting
\n/ - tremolo bar dip; n = amount to dip
\n - tremolo bar down
n/ - tremolo bar up
/n\ - tremolo bar inverted dip
= - hold bend; also acts as connecting device for hammers/pulls
- volume swell (louder/softer)
x - on rhythm slash represents muted slash
o - on rhythm slash represents single note slash
Misc Legend
 
 -----------

| - bar
|| - double bar
||o - repeat start
o|| - repeat end
*| - double bar (ending)
: - bar (freetime)
$ - Segno
& - Coda
Tempo markers - = BPM(8/16=s8/s16), where s8 = swing 8ths, s16 = swing 16ths

Important: The song above is NOT stored on the Chordie server. The original song is hosted at www.guitaretab.com. Chordie works as a search engine and provides on-the-fly formatting. Chordie does not index songs against artists'/composers' will. To remove this song please click here.

Text color:
Chord color:
Chord grids: 
Font size:    
Page size: 

Ab Abmaj7 Am/C B Bb Bb5 C C5 Cm Csus2 D D5 Dm Dsus2 E Eb Eb5 F5 Gm/Bb
Rate #1 of 6 versions

Jango Player

Login - add to songbook

SHARE PAGE  




You need to log in to post comments