Guitar Tabs, Chords and Lyrics
Major upgrade!! After one year development the new version of Chordie is now online! Please give feedback.


All the Love in the World  Nine Inch Nails

As recorded by Nine Inch Nails
(From the 2005 Album WITH TEETH)
Transcribed by Greg Ward
Words and Music by Trent Reznor
Arranged by Trent Reznor
Gtr I (E A D G B E) - 'Choir'
Gtr II (E A D G B E) - 'Piano'
Gtr III (E A D G B E) - 'Piano, Octave Up'
Gtr IV (E A D G B E) - 'Vocals'
Gtr V (D A D G B E) - 'Distortion Guitar'
Verse 1
Q=60
N.C.
[4/4] Gtr I
Wx8
 
 |--------|
 |--------|
 |--------|
 |--------|
 |--------|
 |--------|

[C5]< [Eb5]< [Bb5]< [C5]< [Eb5]< [Bb5]<
Q +H. H. Q W H. Q
 
 |-------------|------------|----------|-------------|
 |-5--(5)------|-6----------|-5--------|-6-----------|
 |-------------|---------5--|----------|---------5---|
 |-------------|------------|----------|-------------|
 |-------------|------------|----------|-------------|
 |-------------|------------|----------|-------------|

[C5]< [Eb5]< [Bb5]< < [C5]< [Eb5]< [Bb5]<
W H Q Q W H H
 
 |----------|------------|----------|-----------|
 |-5--------|-6----8--6--|-5--------|-6---------|
 |----------|------------|----------|------5----|
 |----------|------------|----------|-----------|
 |----------|------------|----------|-----------|
 |----------|------------|----------|-----------|

Chorus 1
[G5]Gtr II
S S E S S S S S S E S S S S S S E S S S S S S E S S S S
 
 ||------------------------------|------------------------------||
 ||o-3---------3-4-3---------3-4-|-3---------3-4-3---------3-4-o||
 ||----5-4-4-5-------5-4-4-5-----|---5-4-4-5-------5-4-4-5------||
 ||------------------------------|------------------------------||
 ||o-----------------------------|-----------------------------o||
 ||------------------------------|------------------------------||

Verse 2
[C5]Gtr I[Eb5] [Bb5]
< < <
Q +H. H. Q
 
 |--------------------|-----------------------------------|
 |-5---(5)------------|---6-------------------------------|
 |--------------------|---------------------------5-------|
 |--------------------|-----------------------------------|
 |--------------------|-----------------------------------|
 |--------------------|-----------------------------------|

|
| Gtrs II, III
| H. E S S +E S E. S E. S E. S S
 
 |--------------13-13-|-(13)---------------10-10----12-12-|
 |--------------------|------11-11--13-13-----------------|
 |--------------------|-----------------------------------|
 |--------------------|-----------------------------------|
 |--------------------|-----------------------------------|
 |--------------------|-----------------------------------|

[C5] < [Eb5] < [Bb5] <
W H. Q
 
 |-------------------|-----------------------------------|
 |---5---------------|---6-------------------------------|
 |-------------------|---------------------------5-------|
 |-------------------|-----------------------------------|
 |-------------------|-----------------------------------|
 |-------------------|-----------------------------------|

|
| +H. E S S +E S E. S E. S E. S S
 
 |-(12)--------13-13-|-(13)---------------10-10----12-12-|
 |-------------------|------11-11--13-13-----------------|
 |-------------------|-----------------------------------|
 |-------------------|-----------------------------------|
 |-------------------|-----------------------------------|
 |-------------------|-----------------------------------|

[C5] < [Eb5] < [Bb5]< <
W H Q Q
 
 |-------------------|-------------------------------------|
 |---5---------------|---6----------------8--------6-------|
 |-------------------|-------------------------------------|
 |-------------------|-------------------------------------|
 |-------------------|-------------------------------------|
 |-------------------|-------------------------------------|

|
| +H. E S S +E S E. S E. S E. S S
 
 |-(12)--------13-13-|-(13)-----------------10-10----12-12-|
 |-------------------|------11-11--13-13-------------------|
 |-------------------|-------------------------------------|
 |-------------------|-------------------------------------|
 |-------------------|-------------------------------------|
 |-------------------|-------------------------------------|

[C5] < [Eb5] < [Bb5]<
W H H
 
 |-----------------------------------------|-------------------------------|
 |---5-------------------------------------|---6---------------------------|
 |-----------------------------------------|--------------------5----------|
 |-----------------------------------------|-------------------------------|
 |-----------------------------------------|-------------------------------|
 |-----------------------------------------|-------------------------------|

|
| Gtr II Gtrs II, III
| +H. E S S +E S E. S E. S Q S
 
 |-(12)-20-18----18------------------13-13-|-(13)-----------------10-10----|
 |------------20----20-18-20-18-17---------|------11-11--13-13-------------|
 |-----------------------------------------|-------------------------------|
 |-----------------------------------------|-------------------------------|
 |-----------------------------------------|-------------------------------|
 |-----------------------------------------|-------------------------------|

E. S S S S S T T S E Q
Chorus 2, Bridge, Chorus 3
[G5]Gtr II
S S E S S S S S S E S S S S S S E S S S S S S E S S S S 10x
 
 ||------------------------------|------------------------------||
 ||o-3---------3-4-3---------3-4-|-3---------3-4-3---------3-4-o||
 ||----5-4-4-5-------5-4-4-5-----|---5-4-4-5-------5-4-4-5------||
 ||------------------------------|------------------------------||
 ||o-----------------------------|-----------------------------o||
 ||------------------------------|------------------------------||

Breakdown
Q=120
[G]H. +E [Gm]E +Q. [F5]H [C]E +H. +E [Gm]E +Q. [Bb]H [G]E
 
 |-------------3-|-(3)---1------|--------------3-|-(3)---1-------|
 |-3-------(3)-3-|-(3)---1----5-|-(5)------(5)-3-|-(3)---3----3--|
 |-4-------(4)-3-|-(3)--------5-|-(5)------(5)-3-|-(3)---3----4--|
 |-5-------(5)---|-------3----5-|-(5)------(5)-1-|-(1)--------5--|
 |-------------1-|-(1)--------3-|-(3)------(3)---|-------1-------|
 |-3-------(3)---|-------1------|----------------|------------3--|

+H. +E [Gm]E +Q. [F5]H [C]E +Q E E E E E [Gm]E +Q. [Bb]H [G]E
 
 |--------------3-|-(3)---1------|--------------------------3-|-(3)---1-------|
 |-(3)------(3)-3-|-(3)---1----5-|-(5)--(5)-(5)-(5)-(5)-(5)-3-|-(3)---3----3--|
 |-(4)------(4)-3-|-(3)--------5-|-(5)--(5)-(5)-(5)-(5)-(5)-3-|-(3)---3----4--|
 |-(5)------(5)---|-------3----5-|-(5)--(5)-(5)-(5)-(5)-(5)-1-|-(1)--------5--|
 |--------------1-|-(1)--------3-|-(3)---3--(3)--3--(3)--3----|-------1-------|
 |-(3)------(3)---|-------1------|----------------------------|------------3--|

Breakdown 2
+H. +E [Gm] E +Q. [F5]H [C]E
 
 |-------------------3-|--(3)-----1--------|
 |-(3)----------(3)--3-|--(3)-----1------5-|
 |-(4)----------(4)--3-|--(3)------------5-|
 |-(5)----------(5)----|----------3------5-|
 |-------------------1-|--(1)------------3-|
 |-(3)----------(3)----|----------1--------|

|
| Gtr IV
| Q E Q Q E +E E E Q E E E
 
 |---------------------|-------------------|
 |--0---1-3--12-----13-|-(13)p6-6-6--6-6-6p|
 |---------------------|-------------------|
 |---------------------|-------------------|
 |---------------------|-------------------|
 |---------------------|-------------------|

+Q E E E E E [Gm]E +Q. [Bb]H [G]E
 
 |--------------------------3-|-(3)---1-------|
 |-(5)--(5)-(5)-(5)-(5)-(5)-3-|-(3)---3----3--|
 |-(5)--(5)-(5)-(5)-(5)-(5)-3-|-(3)---3----4--|
 |-(5)--(5)-(5)-(5)-(5)-(5)-1-|-(1)--------5--|
 |-(3)---3--(3)--3--(3)--3----|-------1-------|
 |----------------------------|------------3--|

|
| Q H. W
 
 |----------------------------|---------------|
 |--5-------------------------|---------------|
 |----------------------------|---------------|
 |----------------------------|---------------|
 |----------------------------|---------------|
 |----------------------------|---------------|

+H. +E [Gm] E +Q. [F5]H [C]E
 
 |-------------------3-|--(3)-----1--------|
 |-(3)----------(3)--3-|--(3)-----1------5-|
 |-(4)----------(4)--3-|--(3)------------5-|
 |-(5)----------(5)----|----------3------5-|
 |-------------------1-|--(1)------------3-|
 |-(3)----------(3)----|----------1--------|

|
| Gtr IV
| Q E Q Q E +E E E Q E E E
 
 |---------------------|-------------------|
 |--0---1-3--12-----13-|-(13)p6-6-6--6-8-6p|
 |---------------------|-------------------|
 |---------------------|-------------------|
 |---------------------|-------------------|
 |---------------------|-------------------|

+Q E E E E E [Gm]E +Q. [Bb]H [G]E
 
 |-------------------------3-|-(3)----1---------|
 |-(5)--(5)-(5)(5)-(5)-(5)-3-|-(3)----3------3--|
 |-(5)--(5)-(5)(5)-(5)-(5)-3-|-(3)----3------4--|
 |-(5)--(5)-(5)(5)-(5)-(5)-1-|-(1)-----------5--|
 |-(3)---3--(3)-3--(3)--3----|--------1---------|
 |---------------------------|---------------3--|

|
| Q H. W
 
 |---------------------------|------------------|
 |--5------------------------|------------------|
 |-12---10---6p=5-------3--5-|-(5)--0-5--5-0-3--|
 |---------------------------|------------------|
 |---------------------------|------------------|
 |---------------------------|------------------|

Q E E Q E E +Q E Q E E E
+H. +E [Gm] E +Q. [F5]H [C]E
 
 |--------------------3-|--(3)-----1--------|
 |-(3)-----------(3)--3-|--(3)-----1------5-|
 |-(4)-----------(4)--3-|--(3)------------5-|
 |-(5)-----------(5)----|----------3------5-|
 |--------------------1-|--(1)------------3-|
 |-(3)-----------(3)----|----------1--------|

|
| Gtr IV
| Q E Q Q E +E E E Q E E E
 
 |----------------------|-------------------|
 |--0---1--3--12-----13-|-(13)p6-6-6--6-6-6p|
 |-(3)------------------|-------------------|
 |--9---7--5---0-----10-|-(10)p3-3-3--3-3-3p|
 |----------------------|-------------------|
 |----------------------|-------------------|

+Q H.
+Q E E E E E [Gm]E +Q. [Bb]H [G]E
 
 |--------------------------3-|-(3)---1-------|
 |-(5)--(5)-(5)-(5)-(5)-(5)-3-|-(3)---3----3--|
 |-(5)--(5)-(5)-(5)-(5)-(5)-3-|-(3)---3----4--|
 |-(5)--(5)-(5)-(5)-(5)-(5)-1-|-(1)--------5--|
 |-(3)---3--(3)--3--(3)--3----|-------1-------|
 |----------------------------|------------3--|

|
| Q H. W
 
 |----------------------------|---------------|
 |--5-------------------------|---------------|
 |----------------------------|---------------|
 |--2-------------------------|---------------|
 |----------------------------|---------------|
 |----------------------------|---------------|

+H. +E [Gm] E +Q. [F5] H [C] E
 
 |---------------------3-|--(3)--------1-----------|
 |-(3)------------(3)--3-|--(3)--------1---------5-|
 |-(4)------------(4)--3-|--(3)------------------5-|
 |-(5)------------(5)----|-------------3---------5-|
 |---------------------1-|--(1)------------------3-|
 |-(3)------------(3)----|-------------1-----------|

|
| Gtr IV
| Q E Q Q E +E E E Q E E E
 
 |-----------------------|-------------------------|
 |--0----1--3--12-----13-|-(13)p=6--6--6---6--6--6p|
 |-----------------------|-------------------------|
 |--9----7--5---0-----10-|-(10)p=3--3--3---3--3--3p|
 |-17---17-17--15-----22-|-(22)p17-17-17--17-17-17p|
 |-----------------------|-------------------------|

+Q E E E E E [Gm] E +Q. [Bb]H [G]E
 
 |---------------------------3-|--(3)------1---------|
 |-(5)----(5)(5)-(5)-(5)(5)--3-|--(3)------3------3--|
 |-(5)----(5)(5)-(5)-(5)(5)--3-|--(3)------3------4--|
 |-(5)----(5)(5)-(5)-(5)(5)--1-|--(1)-------------5--|
 |-(3)-----3-(3)--3--(3)-3-----|-----------1---------|
 |-----------------------------|------------------3--|

|
| Q H. W
 
 |-----------------------------|---------------------|
 |--5--------------------------|---------------------|
 |-----12-12h17--10--10p=7--12-|-(12)-12p3h5--5-0-3--|
 |--2--------------------------|---------------------|
 |-15--------------------------|---------------------|
 |-----------------------------|---------------------|

E E E E E E E E +E E E Q E E E
+H. +E [Gm] E +Q. [F5] H [C] E
 
 |----------------------3-|--(3)--------1-----------|
 |-(3)-------------(3)--3-|--(3)--------1---------5-|
 |-(4)-------------(4)--3-|--(3)------------------5-|
 |-(5)-------------(5)----|-------------3---------5-|
 |----------------------1-|--(1)------------------3-|
 |-(3)-------------(3)----|-------------1-----------|

|
| Gtr IV
| Q E Q Q E +E E E Q E E E
 
 |------------------------|-------------------------|
 |--0----1---3--12-----13-|-(13)p=6--6--6---6--6--6p|
 |--0---------------------|-------------------------|
 |--9----7---5---0-----10-|-(10)p=3--3--3---3--3--3p|
 |-17---17--17--15-----22-|-(22)p17-17-17--17-17-17p|
 |------------------------|-------------------------|

Q H.
+Q E E E E E [Gm] E +Q. [Bb]H [G]E
 
 |---------------------------3-|--(3)------1---------|
 |-(5)----(5)(5)-(5)-(5)(5)--3-|--(3)------3------3--|
 |-(5)----(5)(5)-(5)-(5)(5)--3-|--(3)------3------4--|
 |-(5)----(5)(5)-(5)-(5)(5)--1-|--(1)-------------5--|
 |-(3)-----3-(3)--3--(3)-3-----|-----------1---------|
 |-----------------------------|------------------3--|

|
| Q H. W
 
 |-----------------------------|---------------------|
 |--5--------------------------|---------------------|
 |-----12-12h17--10--10p=7--12-|-(12)-12p3h5--5-5-4--|
 |--2--------------------------|---------------------|
 |-15--------------------------|---------------------|
 |-----------------------------|---------------------|

E E E E E E E E +E E E Q E E E
+H. +E [Gm] E +Q. [F5] H [C] E
 
 |----------------------3-|--(3)--------1-----------|
 |-(3)-------------(3)--3-|--(3)--------1---------5-|
 |-(4)-------------(4)--3-|--(3)------------------5-|
 |-(5)-------------(5)----|-------------3---------5-|
 |----------------------1-|--(1)------------------3-|
 |-(3)-------------(3)----|-------------1-----------|

|
| Gtr IV
| Q E Q Q E +E E E Q E E E
 
 |------------------------|-------------------------|
 |--0----1---3--12-----13-|-(13)p=6--6--6---6--6--6-|
 |-(4)--------------------|-------------------------|
 |--9----7---5---0-----10-|-(10)p=3--3--3---3--3--3-|
 |-17---17--17--15-----22-|-(22)p17-17-17--17-17-17-|
 |------------------------|-------------------------|

| +Q H.
|
| Gtr V
| W W
 
 |------------------------|-------------------------|
 |------------------------|-------------------------|
 |------------------------|-------------------------|
 |------------------------|-------------------------|
 |------------------------|-------------------------|
 |------------------------|-------------------------|

+Q E E E E E [Gm] E +Q. [Bb] H [G]E
 
 |--------------------------3-|--(3)--------1---------------|
 |-(5)--(5)-(5)(5)-(5)-(5)--3-|--(3)--------3------------3--|
 |-(5)--(5)-(5)(5)-(5)-(5)--3-|--(3)--------3------------4--|
 |-(5)--(5)-(5)(5)-(5)-(5)--1-|--(1)---------------------5--|
 |-(3)---3--(3)-3--(3)--3-----|-------------1---------------|
 |----------------------------|--------------------------3--|

|
| Q E E Q E E Q E E H
 
 |----------------------------|-----------------------------|
 |--5-------------------------|-----------------------------|
 |----------------------------|------12-12-17p=10--12-------|
 |-17---15--11-10-------8--10-|-(10)-----8-10-(10)----------|
 |-22---20--16p15------13--15p|=(10)----13-15-(10)----------|
 |----------------------------|-----------------------------|

| E E E E E Q.
|
| W H. E E
 
 |----------------------------|-----------------------------|
 |----------------------------|-----------------------------|
 |----------------------------|-----------------------------|
 |----------------------------|-----------------------------|
 |----------------------------|------------------------3-5--|
 |----------------------------|------------------------3-5--|

Breakdown 3
+H. +E [Gm] E +Q. [F5] H [C]E
 
 |---------------------------3-|--(3)-----------1-------------|
 |-(3)------------------(3)--3-|--(3)-----------1-----------5-|
 |-(4)------------------(4)--3-|--(3)-----------------------5-|
 |-(5)------------------(5)----|----------------3-----------5-|
 |---------------------------1-|--(1)-----------------------3-|
 |-(3)------------------(3)----|----------------1-------------|

|
| Q E E E E E E E +E E E +H
 
 |-----------------------------|--------3---3---8p==1--3------|
 |-----------------------------|------------------------------|
 |-12----10--5-(5)---5---3---5-|---3---(3)-(3)----------------|
 |-17----15-11-10--(10)--8--10-|-(10)-(10)-12--10-(10)--------|
 |-----------------------------|------------------------------|
 |-----------------------------|------------------------------|

| E E E E E Q.
|
| E E E E E E E E +E E E Q E E E
 
 |-----------------------------|------------------------------|
 |-----------------------------|------------------------------|
 |-----------------------------|------------------------------|
 |-----------------------------|------------------------------|
 |--5--3--5-----5----3---5---8-|--(8)---8---8---3------3--3-3S|
 |--5--3--5-----5----3---5---8-|--(8)---8---8---3------3--3-3S|

+Q E E E E E [Gm] E +Q. [Bb] H [G]E
 
 |----------------------------3-|--(3)-----------1---------------|
 |-(5)---(5)-(5)-(5)--(5)-(5)-3-|--(3)-----------3------------3--|
 |-(5)---(5)-(5)-(5)--(5)-(5)-3-|--(3)-----------3------------4--|
 |-(5)---(5)-(5)-(5)--(5)-(5)-1-|--(1)------------------------5--|
 |-(3)----3--(3)--3---(3)--3----|----------------1---------------|
 |------------------------------|-----------------------------3--|

|
| Q E E E E E E E +E E E +H
 
 |------------------------------|--------------------------------|
 |------------------------------|--------------------------------|
 |-12----10---5--(5)---5---3--5-|---3---(3)-(3)------------------|
 |-17----15--11--10--(10)--8-10-|-(10)-(10)-12--10-(10)----------|
 |------------------------------|--------------------------------|
 |------------------------------|--------------------------------|

|
| E E E E E E E E +E E E Q E E E
 
 |------------------------------|--------------------------------|
 |------------------------------|--------------------------------|
 |------------------------------|--------------------------------|
 |------------------------------|--------------------------------|
 |-10----10------10----8--10S13-|-(13)--13--13--15------15-15-0--|
 |-10----10------10----8--10S13-|-(13)--13--13--15------15-15-0--|

+H. +E [Gm] E +Q. [F5] H [C]E
 
 |---------------------------3-|--(3)-----------1-------------|
 |-(3)------------------(3)--3-|--(3)-----------1-----------5-|
 |-(4)------------------(4)--3-|--(3)-----------------------5-|
 |-(5)------------------(5)----|----------------3-----------5-|
 |---------------------------1-|--(1)-----------------------3-|
 |-(3)------------------(3)----|----------------1-------------|

|
| Q E E E E E E E +E E E +H
 
 |-----------------------------|--------3---3---8p==1--3------|
 |-----------------------------|------------------------------|
 |-12----10--5-(5)---5---3---5-|---3---(3)-(3)----------------|
 |-17----15-11-10--(10)--8--10-|-(10)-(10)-12--10-(10)--------|
 |-----------------------------|------------------------------|
 |-----------------------------|------------------------------|

| E E E E E Q.
|
| E E E E E E E E +E E E Q E E E
 
 |-----------------------------|------------------------------|
 |-----------------------------|------------------------------|
 |-----------------------------|------------------------------|
 |-----------------------------|------------------------------|
 |--5--3--5-----5----3---5---8-|--(8)---8---8---3------3--3-3S|
 |--5--3--5-----5----3---5---8-|--(8)---8---8---3------3--3-3S|

+Q E E E E E [Gm] E +Q. [Bb] H [G]E
 
 |----------------------------3-|--(3)-----------1---------------|
 |-(5)---(5)-(5)-(5)--(5)-(5)-3-|--(3)-----------3------------3--|
 |-(5)---(5)-(5)-(5)--(5)-(5)-3-|--(3)-----------3------------4--|
 |-(5)---(5)-(5)-(5)--(5)-(5)-1-|--(1)------------------------5--|
 |-(3)----3--(3)--3---(3)--3----|----------------1---------------|
 |------------------------------|-----------------------------3--|

|
| Q E E E E E E E +E E E +H
 
 |------------------------------|------------------------3--3-8--|
 |------------------------------|--------------------------------|
 |-12----10---5--(5)---5---3--5-|---3---(3)-(3)------------------|
 |-17----15--11--10--(10)--8-10-|-(10)-(10)-12--10-(10)----------|
 |------------------------------|--------------------------------|
 |------------------------------|--------------------------------|

| H E E E E
|
| E E E E E E E E +E E E Q E E E
 
 |------------------------------|--------------------------------|
 |------------------------------|--------------------------------|
 |------------------------------|--------------------------------|
 |------------------------------|--------------------------------|
 |-10----10------10----8--10S13-|-(13)--13--13--15------15-15-0--|
 |-10----10------10----8--10S13-|-(13)--13--13--15------15-15-0--|

+H. +E [Gm] E +Q. [F5] H [C]E
 
 |---------------------------3-|--(3)-----------1------------|
 |-(3)------------------(3)--3-|--(3)-----------1----------5-|
 |-(4)------------------(4)--3-|--(3)----------------------5-|
 |-(5)------------------(5)----|----------------3----------5-|
 |---------------------------1-|--(1)----------------------3-|
 |-(3)------------------(3)----|----------------1------------|

|
| E E E Q E E E E +E E E +H
 
 |-(8)---------------8---------|--------3---3---8---1--1-1-3-|
 |--8---8--8-(8)-----8---6---8-|---6---(6)-(6)---------------|
 |-12--10--5-(5)-----5---3---5-|---3---(3)-(3)---------------|
 |-17--15-11-10----(10)--8--10-|-(10)-(10)-12--10-(10)-------|
 |-----------------------------|-----------------------------|
 |-----------------------------|-----------------------------|

| +E H Q. E E E E E E E E
|
| E E E E E E E E +E E E Q E E E
 
 |-----------------------------|-----------------------------|
 |-----------------------------|-----------------------------|
 |-----------------------------|-----------------------------|
 |-----------------------------|-----------------------------|
 |--5---3--5-----5---3---5---8-|--(8)---8---8---3------3-3-3S|
 |--5---3--5-----5---3---5---8-|--(8)---8---8---3------3-3-3S|

+Q E E E E E [Gm] E +Q. [Bb] H [G]E
 
 |----------------------------3-|--(3)-----------1---------------|
 |-(5)---(5)-(5)-(5)--(5)-(5)-3-|--(3)-----------3------------3--|
 |-(5)---(5)-(5)-(5)--(5)-(5)-3-|--(3)-----------3------------4--|
 |-(5)---(5)-(5)-(5)--(5)-(5)-1-|--(1)------------------------5--|
 |-(3)----3--(3)--3---(3)--3----|----------------1---------------|
 |------------------------------|-----------------------------3--|

|
| Q E E E E E E E +E E E +H
 
 |--1---------------------------|--------3---3---8---1---1--1-3--|
 |--8-----8---8--(8)---8---6--8-|---6---(6)-(6)------------------|
 |-12----10---5--(5)---5---3--5-|---3---(3)-(3)------------------|
 |-17----15--11--10--(10)--8-10-|-(10)-(10)-12--10-(10)----------|
 |------------------------------|--------------------------------|
 |------------------------------|--------------------------------|

| E E H. E E E E E E E E
|
| E E E E E E E E +E E E Q E E E
 
 |------------------------------|--------------------------------|
 |------------------------------|--------------------------------|
 |------------------------------|--------------------------------|
 |------------------------------|--------------------------------|
 |-10----10------10----8--10S13-|-(13)--13--13--15------15-15-0--|
 |-10----10------10----8--10S13-|-(13)--13--13--15------15-15-0--|

+H. +E [Gm] E +Q. [F5] H [C]E
 
 |----------------------------3-|--(3)-----------1------------|
 |-(3)-------------------(3)--3-|--(3)-----------1----------5-|
 |-(4)-------------------(4)--3-|--(3)----------------------5-|
 |-(5)-------------------(5)----|----------------3----------5-|
 |----------------------------1-|--(1)----------------------3-|
 |-(3)-------------------(3)----|----------------1------------|

|
| E E E Q E E E E +E E E +H
 
 |--1---------------------------|-----------------------------|
 |--8---8--8--(8)-----8---6---8-|---6---(6)-(6)---------------|
 |-12--10--5--(5)-----5---3---5-|---3---(3)-(3)---------------|
 |-17--15-11--10----(10)--8--10-|-(10)-(10)-12--10-(10)-------|
 |------------------------------|-----------------------------|
 |------------------------------|-----------------------------|

| E E H.
|
| E E E E E E E E +E E E Q E E E
 
 |------------------------------|-----------------------------|
 |------------------------------|-----------------------------|
 |------------------------------|-----------------------------|
 |------------------------------|-----------------------------|
 |--5---3--5------5---3---5---8-|--(8)---8---8---3------3-3-3S|
 |--5---3--5------5---3---5---8-|--(8)---8---8---3------3-3-3S|

+Q E E E E E [Gm] E +Q. [Bb] H [G]E
 
 |----------------------------3-|--(3)-----------1---------------|
 |-(5)---(5)-(5)-(5)--(5)-(5)-3-|--(3)-----------3------------3--|
 |-(5)---(5)-(5)-(5)--(5)-(5)-3-|--(3)-----------3------------4--|
 |-(5)---(5)-(5)-(5)--(5)-(5)-1-|--(1)------------------------5--|
 |-(3)----3--(3)--3---(3)--3----|----------------1---------------|
 |------------------------------|-----------------------------3--|

|
| Q E E E E E E E +E E E +H
 
 |--8-----6---3--(3)---3---1--3-|---1----1---3---8-------8--8-3--|
 |--8-----8---8--(8)---8---6--8-|---6---(6)-(6)------------------|
 |-12----10---5--(5)---5---3--5-|---3---(3)-(3)------------------|
 |-17----15--11--10--(10)--8-10-|-(10)-(10)-12--10-(10)----------|
 |------------------------------|--------------------------------|
 |------------------------------|--------------------------------|

| Q E E +E E E E E E E Q E E E
|
| E E E E E E E E +E E E Q E E E
 
 |------------------------------|--------------------------------|
 |------------------------------|--------------------------------|
 |------------------------------|--------------------------------|
 |------------------------------|--------------------------------|
 |-10----10------10----8--10S13-|-(13)--13--13--15------15-15-0--|
 |-10----10------10----8--10S13-|-(13)--13--13--15------15-15-0--|

Outro
+H. +E [Gm]E +Q. [F5]H [C]E +Q +E +E +E +E +E [Gm]E +Q. [Bb]H [G]E
 
 |--------------3-|-(3)---1------|--------------------------3-|-(3)---1-------|
 |-(3)------(3)-3-|-(3)---1----5-|-(5)--(5)-(5)-(5)-(5)-(5)-3-|-(3)---3----3--|
 |-(4)------(4)-3-|-(3)--------5-|-(5)--(5)-(5)-(5)-(5)-(5)-3-|-(3)---3----4--|
 |-(5)------(5)---|-------3----5-|-(5)--(5)-(5)-(5)-(5)-(5)-1-|-(1)--------5--|
 |--------------1-|-(1)--------3-|-(3)--(3)-(3)-(3)-(3)-(3)---|-------1-------|
 |-(3)------(3)---|-------1------|----------------------------|------------3--|

|
| +H. Q W W W
 
 |-(3)------------|--------------|----------------------------|---------------|
 |----------------|--------------|----------------------------|---------------|
 |----------------|--------------|----------------------------|---------------|
 |----------------|--------------|----------------------------|---------------|
 |----------------|--------------|----------------------------|---------------|
 |----------------|--------------|----------------------------|---------------|

|
| >
| W +W +W W
 
 |----------------|--------------|----------------------------|---------------|
 |----------------|--------------|----------------------------|---------------|
 |----------------|--------------|----------------------------|---------------|
 |----------------|--------------|----------------------------|---------------|
 |--5-------------|-(5)----------|-(5)------------------------|---------------|
 |--5-------------|-(5)----------|-(5)------------------------|---------------|

[Gm]>[F5] [C] [Gm] [Bb] [G]
+H. +E E +Q. H E +Q +E +E +E +E +E E +Q. H E
 
 |--------------3-|-(3)---1------|--------------------------3-|-(3)---1-------|
 |-(3)------(3)-3-|-(3)---1----5-|-(5)--(5)-(5)-(5)-(5)-(5)-3-|-(3)---3----3--|
 |-(4)------(4)-3-|-(3)--------5-|-(5)--(5)-(5)-(5)-(5)-(5)-3-|-(3)---3----4--|
 |-(5)------(5)---|-------3----5-|-(5)--(5)-(5)-(5)-(5)-(5)-1-|-(1)--------5--|
 |--------------1-|-(1)--------3-|-(3)--(3)-(3)-(3)-(3)-(3)---|-------1-------|
 |-(3)------(3)---|-------1------|----------------------------|------------3--|

>[Gm] [F5] [C]
+H. +E E +Q. H E
 
 |--------------3-|-(3)---1------|
 |-(3)------(3)-3-|-(3)---1----5-|
 |-(4)------(4)-3-|-(3)--------5-|
 |-(5)------(5)---|-------3----5-|
 |--------------1-|-(1)--------3-|
 |-(3)------(3)---|-------1------|

+Q +E +E +E +E +E [Gm]E +Q. [Bb]H [G]E +W
 
 |--------------------------3-|-(3)---1----3-|-(3)----*|
 |-(5)--(5)-(5)-(5)-(5)-(5)-3-|-(3)---3----3-|-(3)----*|
 |-(5)--(5)-(5)-(5)-(5)-(5)-3-|-(3)---3----4-|-(4)----*|
 |-(5)--(5)-(5)-(5)-(5)-(5)-1-|-(1)--------5-|-(5)----*|
 |-(3)--(3)-(3)-(3)-(3)-(3)---|-------1------|--------*|
 |----------------------------|------------3-|-(3)----*|

Duration Legend
 
 ---------------
 W - whole; H - half; Q - quarter; E - 8th; S - 16th; T - 32nd; X - 64th; a - acciaccatura

+ - note tied to previous; . - note dotted; .. - note double dotted
Uncapitalized letters represent notes that are staccato (1/2 duration)
Irregular groupings are notated above the duration line
Duration letters will always appear directly above the note/fret number it represents the
duration for. Duration letters with no fret number below them represent rests. Multi-
bar rests are notated in the form Wxn, where n is the number of bars to rest for. Low
melody durations appear below the staff
Tablature Legend
 
 ----------------

h - hammer-on
p - pull-off
b - bend
pb - pre-bend
r - bend release (if no number after the r, then release immediately)
/\ - slide into or out of (from/to "nowhere")
s - legato slide
S - shift slide
- natural harmonic
(n) - artificial harmonic
n(n) - tapped harmonic
~ - vibrato
tr - trill
T - tap
TP - trem. picking
PM - palm muting
\n/ - tremolo bar dip; n = amount to dip
\n - tremolo bar down
n/ - tremolo bar up
/n\ - tremolo bar inverted dip
= - hold bend; also acts as connecting device for hammers/pulls
- volume swell (louder/softer)
x - on rhythm slash represents muted slash
o - on rhythm slash represents single note slash
Misc Legend
 
 -----------

| - bar
|| - double bar
||o - repeat start
o|| - repeat end
*| - double bar (ending)
: - bar (freetime)
$ - Segno
& - Coda
Tempo markers - = BPM(8/16=s8/s16), where s8 = swing 8ths, s16 = swing 16ths

Important: The song above is NOT stored on the Chordie server. The original song is hosted at www.guitaretab.com. Chordie works as a search engine and provides on-the-fly formatting. Chordie does not index songs against artists'/composers' will. To remove this song please click here.

Text color:
Chord color:
Chord grids: 
Font size:    
Page size: 

Bb Bb5 C C5 Eb5 F5 G G5 Gm
Rate #1 of 3 versions

Login - add to songbook

SHARE PAGE  




You need to log in to post comments