Guitar Tabs, Chords and Lyrics
Major upgrade!! After one year development the new version of Chordie is now online! Please give feedback.


Smells Like Teen Spirit   Nirvana

 
 e-----------------------------------------------
 B-----------------------------------------------
 G-----------------------------------------------
 D----------33---------66---------33----------66-* Do 1x
 A--3-33xxxx11-6-66xxxx44-3-33xxxx11-66-66xxxx44-*
 E--1-11xxxx---4-44xxxx---1-11xxxx---44-44xxxx---

 


 


 (distorted)


 

 
 e--------------------
 B--------------------
 G--------------------
 D--------33-------66- Do 4x

 


 A--33xxxx11-66xxxx44-


 

 
 E--11xxxx---44xxxx---

 


 


 Verse:(first part clean or distorted, second part destorted)


 e--1-


 [B-1--]  


 [G----]D---- Do 6x


 [A----]  


 [E----]  


 

 
 e--1-1-1-1-1-1-1-1-1-1-1-1-1-1-1-1-
 B-1-1-1-1-1-1-1-1-1-1-1-1-1-1-1-1--
 G----------------------------------
 D---------------------------------- Do 1x
 A----------------------------------
 E----------------------------------

 


 


 Chorus:(distorted)


 

 
 e-------------------
 B-------------------
 G-------------------
 D-------33-------66- Do 6x

 


 A-33xxxx11-66xxxx44-


 

 
 E-11xxxx---44xxxx---
 e--------------------
 B--------------------
 G--------3b----------
 D-------------------- Do 2x
 A-3-44-33---3-88-6-6-
 E-1-22-11---1-66-4-4-

 


 


 Verse:


 


 Chorus:


 


 Solo:(distorted)


 

 
 e-----------------------------------
 B-----------------------------------
 G-----8-10-8/8b-6/5-6/5-------------
 D-2s10----6------------8-6-8/8b-6/5-
 A-----------------------------------
 E-----------------------------------
 e----------------------------------------------------------------------------------
 B----------------------------------------------------------------------------------
 G-----8-10-8/8b-6/5-6/5------------------------------------------------------------
 D-2s10----6------------8-6-8/8b-6/5-6/5-6/5-6/5-5/3-6/5-6/5-6/5-5/3-6/5-6/5-6/5-5/3
 A----------------------------------------------------------------------------------
 E----------------------------------------------------------------------------------
 e-----------------
 B-----------------
 G-----------------

 


 D-6/5-6/5-6/5-5/3- let ring


 

 
 A-----------------
 E-----------------

 


 


 Last Verse:(last part of other verses)(distorted)


 

 
 e--1-1-1-1-1-1-1-1-1-1-1-1-1-1-1-1-
 B-1-1-1-1-1-1-1-1-1-1-1-1-1-1-1-1--
 G----------------------------------
 D---------------------------------- Do 1x
 A----------------------------------
 E----------------------------------

 


 


 Last chorus:(distorted)


 

 
 e-------------------
 B-------------------
 G-------------------
 D-------33-------66- Do 10x

 


 A-33xxxx11-66xxxx44-


 

 
 E-11xxxx---44xxxx---


Important: The song above is NOT stored on the Chordie server. The original song is hosted at www.guitaretab.com. Chordie works as a search engine and provides on-the-fly formatting. Chordie does not index songs against artists'/composers' will. To remove this song please click here.

This song is displayed as text-only. Transposing and tuning is only available for chordpro-songs.
Rate #1 of 6 versions

Login - add to songbook

SHARE PAGE  




You need to log in to post comments