Guitar Tabs, Chords and Lyrics
Server problems seems to be fixed. Chordie has been experiencing problems with songs disappearing. These issues now seems to be fixed, but still verifying the fix. If you find anything strange, please email admin@chordie.com.


A Grand Scene for a Color Film  Norma Jean

As recorded by Norma Jean
(From the 2006 Album REDEEMER)
Transcribed by Jordan Rozell
Words by Cory Brandon Music by Chris Day, Scottie Henry, Jake Schultz, Daniel Davison
Arranged by Ross Robinson
Gtr I (C# G# C# F# A# B) - 'Scottie Henry'
Gtr II (C# G# C# F# A# B) - 'Chris Day'
Gtr III (C# G# C# F# A# D#) - 'Added Guitar '
Intro
Q=80
1/8
Gtr II
[E]  
 
 |-------|
 |-------|
 |-------|
 |-------|
 |-------|

|-3/----|
[4/4] E S S E. H S
 
 |----------------------------------------------|
 |----------------------------------------------|
 |----------------------------------------------|
 |-0s9-----9-----9-----9---------------------8--|
 |-0--------------------------------------------|
 |-0-0-----0-----0-----0--------------------(0)-|

|
| Gtr I
| E S S E. H S
 
 |----------------------------------------------|
 |----------------------------------------------|
 |----------------------------------------------|
 |-0s8b8.5-8b8.5-8b8.5-8b8.5-----------------8--|
 |-0--------------------------------------------|
 |-0-0-----0-----0-----0--------------------(0)-|

|
| Gtr III
| TP TP TP
| Q Q Q S S S S
 
 |---------------------------(15)-(16)-(15)-----|
 |----------------------------------------------|
 |----------------------------------------------|
 |----------------------------------------------|
 |----------------------------------------------|
 |----------------------------------------------|

E S S E. H S
 
 |--------------------------------------|
 |--------------------------------------|
 |--------------------------------------|
 |-0s9-----9-----9-----9-------------8--|
 |-0------------------------------------|
 |-0-0-----0-----0-----0------------(0)-|

|
| E S S E. H S
 
 |--------------------------------------|
 |--------------------------------------|
 |--------------------------------------|
 |-0s8b8.5-8b8.5-8b8.5-8b8.5---------8--|
 |-0------------------------------------|
 |-0-0-----0-----0-----0------------(0)-|

|
| ~~~~~~
| Q Q E E +Q
 
 |--------------------------------------|
 |--------------------------------------|
 |---------------------------8-(8)------|
 |--------------------------------------|
 |--------------------------------------|
 |--------------------------------------|

E S S E. H S
 
 |-------------------------------------|
 |-------------------------------------|
 |-------------------------------------|
 |-0s9-----9-----9-----9------------8--|
 |-0-----------------------------------|
 |-0-0-----0-----0-----0-----------(0)-|

|
| E S S E. H S
 
 |-------------------------------------|
 |-------------------------------------|
 |-------------------------------------|
 |-0s8b8.5-8b8.5-8b8.5-8b8.5--------8--|
 |-0-----------------------------------|
 |-0-0-----0-----0-----0-----------(0)-|

|
| Q Q E S S S S S S
 
 |-------------------------------------|
 |-------------------------------------|
 |---------------------8-----5-8-5--8--|
 |-------------------------------------|
 |-------------------------------------|
 |-------------------------------------|

E S S E. H S
 
 |----------------------------------|
 |----------------------------------|
 |----------------------------------|
 |-0s9-----9-----9-----9---------8--|
 |-0--------------------------------|
 |-0-0-----0-----0-----0--------(0)-|

|
| E S S E. H S
 
 |----------------------------------|
 |----------------------------------|
 |----------------------------------|
 |-0s8b8.5-8b8.5-8b8.5-8b8.5-----8--|
 |-0--------------------------------|
 |-0-0-----0-----0-----0--------(0)-|

|
| Q Q H
 
 |----------------------------------|
 |----------------------------------|
 |----------------------------------|
 |---------------------9b9.5r=======|
 |----------------------------------|
 |----------------------------------|

\1 /
W +W +W +W
 
 |----------|------------|------------|--------|
 |----------|------------|------------|--------|
 |----------|------------|------------|--------|
 |----------|------------|------------|--------|
 |----------|------------|------------|--------|
 |-0--------|-(0)--------|-(0)--------|-(0)----|

|
| W +W +W +W
 
 |----------|------------|------------|--------|
 |----------|------------|------------|--------|
 |----------|------------|------------|--------|
 |-0--------|-(0)--------|-(0)--------|-(0)----|
 |-0--------|-(0)--------|-(0)--------|-(0)----|
 |-0--------|-(0)--------|-(0)--------|-(0)----|

PM--| PM--|
S S S H. S S S S S S S S S S S S S S S S S
 
 |----------------------------------|-----------------------------------|
 |----------------------------------|-----------------------------------|
 |----------------------------------|-----------------------------------|
 |----------------------------------|-----------------------------------|
 |----------------------------------|-------3-----5-----------3---------|
 |-0-0-0----------------------------|-0-0-0---2-2---3-3-7-7-7---3-3-3---|

|
| PM--| PM--|
| E S S S S S S S S S S S S S S S S S S S S S S S S S S S S S S
 
 |----------------------------------|-----------------------------------|
 |----------------------------------|-----------------------------------|
 |----------------------------------|-----------------------------------|
 |----------------------------------|-----------------------------------|
 |-------3------5-----------3-------|-------3-----5-----------3---------|
 |-0---0----2-2---3-3-7-7-7---3-3-3-|-0-0-0---2-2---3-3-7-7-7---3-3-3---|

Verse
PM--|
S S S S S S S S S S S S S S S S
 
 |---------------------------------|
 |---------------------------------|
 |---------------------------------|
 |---------------------------------|
 |-------3-----5-----------3-------|
 |-0-0-0---2-2---3-3-7-7-7---3-3-3-|

|
| PM--|
| S S S S S S S S S S S S S S S S
 
 |---------------------------------|
 |---------------------------------|
 |---------------------------------|
 |---------------------------------|
 |-------3-----5-----------3-------|
 |-0-0-0---2-2---3-3-7-7-7---3-3-3-|

S S S S S S S S S S S S S S S S
 
 |----------------------------------------------------------------|
 |----------------------------------------------------------------|
 |----------------------------------------------------------------|
 |--3------3-3-3--3--------------------3--0------0--3---2--2---2--|
 |--3------3-3-3--3--------------------3--0------0--3---2--2---2--|
 |--3------3-3-3--3--------------------3--0------0--3---2--2---2--|

|
| E. E. E. E. S S E
 
 |----------------------------------------------------------------|
 |-12b12.5r======12b12.5r====12b12.5r====12b12.5r==12-(10)---(10)-|
 |-12------------12----------12----------12--------12--10-----10--|
 |----------------------------------------------------------------|
 |----------------------------------------------------------------|
 |----------------------------------------------------------------|

PM--|
S S S S S S S S S S S S S S S S
 
 |---------------------------------|
 |---------------------------------|
 |---------------------------------|
 |---------------------------------|
 |-------3-----5-----------3-------|
 |-0-0-0---2-2---3-3-7-7-7---3-3-3-|

|
| PM--|
| S S S S S S S S S S S S S S S S
 
 |---------------------------------|
 |---------------------------------|
 |---------------------------------|
 |---------------------------------|
 |-------3-----5-----------3-------|
 |-0-0-0---2-2---3-3-7-7-7---3-3-3-|

S S S S S S S S E E S S S S
 
 |---------------------------------------------------------------|
 |---------------------------------------------------------------|
 |---------------------------------------------------------------|
 |--3------3-3--3------3-------------3---------0--3---2----2--2--|
 |--3------3-3--3------3-------------3---------0--3---2----2--2--|
 |--3------3-3--3------3-------------3---------0--3---2----2--2--|

|
| E. E. E. E. S S E
 
 |---------------------------------------------------------------|
 |-12b12.5r====12b12.5r====12b12.5r====12b12.5r==12-(10)-(10)----|
 |-12----------12----------12----------12--------12--10---10-----|
 |---------------------------------------------------------------|
 |---------------------------------------------------------------|
 |---------------------------------------------------------------|

PM--|
S S S S S S S S S S S S S S S S
 
 |---------------------------------|
 |---------------------------------|
 |---------------------------------|
 |---------------------------------|
 |-------3-----5-----------3-------|
 |-0-0-0---2-2---3-3-7-7-7---3-3-3-|

|
| PM--|
| S S S S S S S S S S S S S S S S
 
 |---------------------------------|
 |---------------------------------|
 |---------------------------------|
 |---------------------------------|
 |-------3-----5-----------3-------|
 |-0-0-0---2-2---3-3-7-7-7---3-3-3-|

S S S S S S S S S S S S S S S S
 
 |----------------------------------------------------------------|
 |----------------------------------------------------------------|
 |----------------------------------------------------------------|
 |--3------3-3--3------3----------------3------0-0--3---2----2--2-|
 |--3------3-3--3------3----------------3------0-0--3---2----2--2-|
 |--3------3-3--3------3----------------3------0-0--3---2----2--2-|

|
| E. E. E. E. S S E
 
 |----------------------------------------------------------------|
 |-12b12.5r====12b12.5r====12b12.5r====12b12.5r====12-(10)-(10)---|
 |-12----------12----------12----------12----------12--10---10----|
 |----------------------------------------------------------------|
 |----------------------------------------------------------------|
 |----------------------------------------------------------------|

PM--|
S S S S S S S S S S S S S S S S
 
 |---------------------------------|
 |---------------------------------|
 |---------------------------------|
 |---------------------------------|
 |-------3-----5-----------3-------|
 |-0-0-0---2-2---3-3-7-7-7---3-3-3-|

|
| PM--|
| S S S S S S S S S S S S S S S S
 
 |---------------------------------|
 |---------------------------------|
 |---------------------------------|
 |---------------------------------|
 |-------3-----5-----------3-------|
 |-0-0-0---2-2---3-3-7-7-7---3-3-3-|

S S S S S S S S E E S S S S
 
 |--------------------------------------------------------------|
 |--------------------------------------------------------------|
 |--------------------------------------------------------------|
 |--3------3-3--3------3-------------3---------0--3---2----2--2-|
 |--3------3-3--3------3-------------3---------0--3---2----2--2-|
 |--3------3-3--3------3-------------3---------0--3---2----2--2-|

|
| E. E. E. E. S S E
 
 |--------------------------------------------------------------|
 |-12b12.5r====12b12.5r====12b12.5r====12b12.5r==12-(10)-(10)---|
 |-12----------12----------12----------12--------12--10---10----|
 |--------------------------------------------------------------|
 |--------------------------------------------------------------|
 |--------------------------------------------------------------|

Pre-Chorus
W
 
 |---------------------------------------|
 |---------------------------------------|
 |---------------------------------------|
 |-0-------------------------------------|
 |-0-------------------------------------|
 |-0-------------------------------------|

|
| TP TP
| S S S S E E S S S S E E
 
 |---------------------------------------|
 |---------------------------------------|
 |---------------------------------------|
 |---------------------------------------|
 |-5b5.5-5-5-5-5b6r=5b6r=5-5-5-5-5b6r=5/-|
 |---------------------------------------|

+W
 
 |---------------------------------------|
 |---------------------------------------|
 |---------------------------------------|
 |-(0)-----------------------------------|
 |-(0)-----------------------------------|
 |-(0)-----------------------------------|

|
| Q Q Q Q
 
 |---------------------------------------|
 |---------------------------------------|
 |---------------------------------------|
 |-12---------3----------0----------8----|
 |-12---------3----------0----------8----|
 |-12---------3----------0----------8----|

Chorus
S S S E S S S S S S S S S S S
 
 |----------------------------------------------------------------------|
 |----------------------------------------------------------------------|
 |----------------------------------------------------------------------|
 |----------------------------------------------------------------------|
 |-/12------12-12-12---------3------3--3-------0-0--0------0--8-8--8--8-|
 |-/12------12-12-12---------3------3--3-------0-0--0------0--8-8--8--8-|

|
| S S S S S S S S S S S S S S S S
 
 |----------------------------------------------------------------------|
 |-----------0--0-10b10.5-0-------------------13-0-------------------10-|
 |--10b10.5-----------------10b10.5-0-10b10.5---------------------------|
 |-------------------------------------------------12b12.5-0-12-0-12----|
 |----------------------------------------------------------------------|
 |----------------------------------------------------------------------|

S S S E S S S S S S S S S S S
 
 |----------------------------------------------------------------------|
 |----------------------------------------------------------------------|
 |----------------------------------------------------------------------|
 |----------------------------------------------------------------------|
 |-/12------12-12-12---------3------3--3-------0-0--0------0--8-8--8--8-|
 |-/12------12-12-12---------3------3--3-------0-0--0------0--8-8--8--8-|

|
| S S S S S S S S S S S S S S S S
 
 |----------------------------------------------------------------------|
 |-----------0--0-10b10.5-0-------------------13-0-------------------10-|
 |--10b10.5-----------------10b10.5-0-10b10.5---------------------------|
 |-------------------------------------------------12b12.5-0-12-0-12----|
 |----------------------------------------------------------------------|
 |----------------------------------------------------------------------|

[7/4] Gtrs I, II
E. T T E. S S. S. S E. T T E. S S. S. S S. S. S
 
 |-------------------------------------------------|
 |--------3-------3-----------3-------3------------|
 |--------3-------3-----------3-------3------------|
 |-0------3--0-0--3--0-0------3--0-0--3--0-0-------|
 |-0------1--0-0--1--0-0------1--0-0--1--0-0-------|
 |-0--0-0----0-0-----0-0--0-0----0-0-----0-0-------|

Verse
[4/4] Gtr II
 
 PM------|

T T T T S S S S S S S S S S S S S S
 
 |-------------------------------------|
 |-------------------------------------|
 |-------------------------------------|
 |-------------------------------------|
 |-----------3-----5-----------3-------|
 |-0-0-0-0-0---2-2---3-3-7-7-7---3-3-3-|

|
| Gtr I
 
 | PM------|

| S S S S S S S S S S S S S S S S
 
 |-------------------------------------|
 |-------------------------------------|
 |-------------------------------------|
 |-------------------------------------|
 |-----------3-----5-----------3-------|
 |-0---0---0---2-2---3-3-7-7-7---3-3-3-|

S S S S S S S S S S S S S S S S
 
 |-----------------------------------------------------------------|
 |-----------------------------------------------------------------|
 |-----------------------------------------------------------------|
 |--3------3-3--3------3----------------3------0-0--3---2----2--2--|
 |--3------3-3--3------3----------------3------0-0--3---2----2--2--|
 |--3------3-3--3------3----------------3------0-0--3---2----2--2--|

|
| E. E. E. E. S S E
 
 |-----------------------------------------------------------------|
 |-12b12.5r====12b12.5r====12b12.5r====12b12.5r====12-(10)-(10)----|
 |-12----------12----------12----------12----------12--10---10-----|
 |-----------------------------------------------------------------|
 |-----------------------------------------------------------------|
 |-----------------------------------------------------------------|

PM--|
S S S S S S S S S S S S S S S S
 
 |---------------------------------|
 |---------------------------------|
 |---------------------------------|
 |---------------------------------|
 |-------3-----5-----------3-------|
 |-0-0-0---2-2---3-3-7-7-7---3-3-3-|

|
| PM--|
| S S S S S S S S S S S S S S S S
 
 |---------------------------------|
 |---------------------------------|
 |---------------------------------|
 |---------------------------------|
 |-------3-----5-----------3-------|
 |-0-0-0---2-2---3-3-7-7-7---3-3-3-|

S S S S S S S S E E S S S S
 
 |--------------------------------------------------------------|
 |--------------------------------------------------------------|
 |--------------------------------------------------------------|
 |--3------3-3--3------3-------------3---------0--3---2----2--2-|
 |--3------3-3--3------3-------------3---------0--3---2----2--2-|
 |--3------3-3--3------3-------------3---------0--3---2----2--2-|

|
| E. E. E. E. S S E
 
 |--------------------------------------------------------------|
 |-12b12.5r====12b12.5r====12b12.5r====12b12.5r==12-(10)-(10)---|
 |-12----------12----------12----------12--------12--10---10----|
 |--------------------------------------------------------------|
 |--------------------------------------------------------------|
 |--------------------------------------------------------------|

PM--| PM--|
S S S S S S S S S S S S S S S S S S S S S S S S S S S S S S S S
 
 |----------------------------------|----------------------------------|
 |----------------------------------|----------------------------------|
 |----------------------------------|----------------------------------|
 |----------------------------------|----------------------------------|
 |-------3-----5------------3-------|-------3-----5------------3-------|
 |-0-0-0---2-2---3-3-7-7--7---3-3-3-|-0-0-0---2-2---3-3-7-7--7---3-3-3-|

|
| S S S S H. S S S S H.
 
 |----------------------------------|----------------------------------|
 |----------------------------------|----------------------------------|
 |----------------------------------|----------------------------------|
 |-0---0---0---0-------0------------|-0---0---0---0-------0------------|
 |-0---0---0---0-------0------------|-0---0---0---0-------0------------|
 |-0---0---0---0-------0------------|-0---0---0---0-------0------------|

PM--|
S S S S S S S S S S S S S S S S S S S S S S S S S S S S S S S S
 
 |----------------------------------|------------------------------------|
 |----------------------------------|------------------------------------|
 |----------------------------------|------------------------------------|
 |----------------------------------|------------------------------------|
 |-------3------5-----------3-------|-1-1-1-1-1---1-1-1-1-1---1-0-0-0----|
 |-0-0-0---2--2---3-3-7-7-7---3-3-3-|-3-3-3-3-3---3-3-3-3-3---3-2-2-2----|

|
| S S S S H. S S S S S S S S S S S S S S S S
 
 |----------------------------------|------------------------------------|
 |----------------------------------|------------------------------------|
 |----------------------------------|------------------------------------|
 |-0-0-0-0-0------------------------|------------------------------------|
 |-0-0-0-0-0------------------------|-1-1-1-1-1---1-1-1-1-1---1-0-0-0----|
 |-0-0-0-0-0------------------------|-3-3-3-3-3---3-3-3-3-3---3-2-2-2----|

Pre-Chorus
W
 
 |---------------------------------------|
 |---------------------------------------|
 |---------------------------------------|
 |-0-------------------------------------|
 |-0-------------------------------------|
 |-0-------------------------------------|

|
| TP TP
| S S S S E E S S S S E E
 
 |---------------------------------------|
 |---------------------------------------|
 |---------------------------------------|
 |---------------------------------------|
 |-5b5.5-5-5-5-5b6r5b6r5-5-5-5-5b6r5/----|
 |---------------------------------------|

+W
 
 |----------------------------------------------------------------|
 |----------------------------------------------------------------|
 |----------------------------------------------------------------|
 |--(0)-----------------------------------------------------------|
 |--(0)-----------------------------------------------------------|
 |--(0)-----------------------------------------------------------|

|
| Q Q Q Q
 
 |----------------------------------------------------------------|
 |----------------------------------------------------------------|
 |----------------------------------------------------------------|
 |-(12)---------------(3)----------------0--------------------8---|
 |-(12)---------------(3)----------------0--------------------8---|
 |-(12)---------------(3)----------------0--------------------8---|

Chorus
S S S E S S S S S S S S S S S
 
 |----------------------------------------------------------------------|
 |----------------------------------------------------------------------|
 |----------------------------------------------------------------------|
 |----------------------------------------------------------------------|
 |-/12------12-12-12---------3------3--3-------0-0--0------0--8-8--8--8-|
 |-/12------12-12-12---------3------3--3-------0-0--0------0--8-8--8--8-|

|
| S S S S S S S S S S S S S S S S
 
 |----------------------------------------------------------------------|
 |-----------0--0-10b10.5-0-------------------13-0-------------------10-|
 |--10b10.5-----------------10b10.5-0-10b10.5---------------------------|
 |-------------------------------------------------12b12.5-0-12-0-12----|
 |----------------------------------------------------------------------|
 |----------------------------------------------------------------------|

S S S E S S S S S S S S S S S
 
 |----------------------------------------------------------------------|
 |----------------------------------------------------------------------|
 |----------------------------------------------------------------------|
 |----------------------------------------------------------------------|
 |-/12------12-12-12---------3------3--3-------0-0--0------0--8-8--8--8-|
 |-/12------12-12-12---------3------3--3-------0-0--0------0--8-8--8--8-|

|
| S S S S S S S S S S S S S S S S
 
 |----------------------------------------------------------------------|
 |-----------0--0-10b10.5-0-------------------13-0-------------------10-|
 |--10b10.5-----------------10b10.5-0-10b10.5---------------------------|
 |-------------------------------------------------12b12.5-0-12-0-12----|
 |----------------------------------------------------------------------|
 |----------------------------------------------------------------------|

S S S E S S S S S S S S S S S
 
 |----------------------------------------------------------------------|
 |----------------------------------------------------------------------|
 |----------------------------------------------------------------------|
 |----------------------------------------------------------------------|
 |-/12------12-12-12---------3------3--3-------0-0--0------0--8-8--8--8-|
 |-/12------12-12-12---------3------3--3-------0-0--0------0--8-8--8--8-|

|
| S S S S S S S S S S S S S S S S
 
 |----------------------------------------------------------------------|
 |-----------0--0-10b10.5-0-------------------13-0-------------------10-|
 |--10b10.5-----------------10b10.5-0-10b10.5---------------------------|
 |-------------------------------------------------12b12.5-0-12-0-12----|
 |----------------------------------------------------------------------|
 |----------------------------------------------------------------------|

S S S E S S S S S S S S S S S
 
 |----------------------------------------------------------------------|
 |----------------------------------------------------------------------|
 |----------------------------------------------------------------------|
 |----------------------------------------------------------------------|
 |-/12------12-12-12---------3------3--3-------0-0--0------0--8-8--8--8-|
 |-/12------12-12-12---------3------3--3-------0-0--0------0--8-8--8--8-|

|
| S S S S S S S S S S S S S S S S
 
 |----------------------------------------------------------------------|
 |-----------0--0-10b10.5-0-------------------13-0-------------------10-|
 |--10b10.5-----------------10b10.5-0-10b10.5---------------------------|
 |-------------------------------------------------12b12.5-0-12-0-12----|
 |----------------------------------------------------------------------|
 |----------------------------------------------------------------------|

[6/4] Gtr II
E. T T E. S S. S. S E. T T E. S S. S. S
 
 |-----------------------------------------|
 |--------3-------3-----------3-------3----|
 |--------3-------3-----------3-------3----|
 |-0------3--0-0--3--0-0------3--0-0--3--0-|
 |-0------1--0-0--1--0-0------1--0-0--1--0-|
 |-0--0-0----0-0-----0-0--0-0----0-0-----0-|

|
| Gtr I
| E. T T E. S S. S. S E. T T E. S S. S. S
 
 |-----------------------------------------|
 |--------3-------3-----------3-------3----|
 |--------3-------3-----------3-------3----|
 |-0------3--0-0--3--0-0------3--0-0--3--0-|
 |-0------1--0-0--1--0-0------1--0-0--1--0-|
 |-0--0-0----0-0-----0-0--0-0----0-0-----0-|

[7/4] E. T T E. S S. S. S E. T T E. S S. S. S S. S. S
 
 |------------------------------------------------------|
 |---------3--------3------------3--------3-------------|
 |---------3--------3------------3--------3-------------|
 |-0-------3--0-0---3--0-0-------3--0-0---3--0-0--------|
 |-0-------1--0-0---1--0-0-------1--0-0---1--0-0--------|
 |-0--0-0-----0-0------0-0--0-0-----0-0------0-0--------|

|
| E. T T E. S S. S. S E. T T E. S S. S. S S. S. S
 
 |------------------------------------------------------|
 |------------------------------------------------------|
 |--------15-------15-----------15-------15-------------|
 |-0-------x--0-0---x--0-0-------x--0-0---x--0-0--------|
 |-0------13--0-0--13--0-0------13--0-0--13--0-0--------|
 |-0--0-0-----0-0------0-0--0-0-----0-0------0-0--------|

[4/4] S S S S S S S S S S S S S S S S S S S S S S S S S S S S S S S S
 
 |-----------------------------------------|----------------------------------------------|
 |-----------------------------------------|----------------------------------------------|
 |-----------------------------------------|----------------------------------------------|
 |-----------------------------------------|----------------------------------------------|
 |-----------------------------------------|----------------------------------------------|
 |-12-0-12-0-12---12-0-12-0-12---12-0-12-0-|-12-0-12-0-12---12-0-12-0-12---12-0--12----0--|

|
| W Q Q Q S S S +S
 
 |-----------------------------------------|----------------------------------------------|
 |-----------------------------------------|----------------------------------------------|
 |-----------------------------------------|----------------------------------------------|
 |-----------------------------------------|----------------------------------------------|
 |-----------------------------------------|------------------------------------[15]-(15)-|
 |-----------------------------------------|------------------------------------[15]-(15)-|

S S S S S S S S S S S S S S S S
 
 |--------------------------------------------|
 |--------------------------------------------|
 |--------------------------------------------|
 |--------------------------------------------|
 |--------------------------------------------|
 |-12-0-12-0-12---12-0-12-0-12---12-0-12-0----|

|
| S S S S S S S S S S S S S S S S
 
 |--------------------------------------------|
 |--------------------------------------------|
 |--------------------------------------------|
 |--------------------------------------------|
 |--------------------------------------------|
 |-12-0-12-0-12---12-0-12-0-12---12-0-12-0----|

S S S S S S S S S S S S S S S S
 
 |-----------------------------------------|
 |-----------------------------------------|
 |-----------------------------------------|
 |-----------------------------------------|
 |-----------------------------------------|
 |-12-0-12-0-12---12-0-12-0-12---12-0-12-0-|

|
| S S S S S S S S S S S S S S S S
 
 |-----------------------------------------|
 |-----------------------------------------|
 |-----------------------------------------|
 |-----------------------------------------|
 |-----------------------------------------|
 |-15-0-15-0-15---18-0-18-0-18---18-0-18-0-|

W
 
 |-----------------------------------------------------|
 |-----------------------------------------------------|
 |-----------------------------------------------------|
 |-----------------------------------------------------|
 |-----------------------------------------------------|
 |-----------------------------------------------------|

|
| T T T T E E T T T T E E T T T T E
 
 |-----------------------------------------------------|
 |-----------------------------------------------------|
 |-19-19-19-19-19-19-19-19-19-19-19-19-19-19-19-19-19--|
 |--x--x--x--x--x--x--x--x--x--x--x--x--x--x--x--x--x--|
 |-17-17-17-17-17-17-17-17-17-17-17-17-17-17-17-17-17--|
 |-----------------------------------------------------|

Breakdown
[4/4] Gtrs I, II
 
 PM------| PM------|

T T T T S S S S E T T T T S S T T T T E
 
 ||--------------------------------------------------------------------|
 ||o-------------------------------------------------------------------|
 ||-------------------7b7.5--------------7b7.5-7b7.5-7b7.5-7b7.5-7b7.5-|
 ||-------------------x------------------x-----x-----x-----x-----x-----|
 ||o------------------5------------------5-----5-----5-----5-----5-----|
 ||--0-0-0-0-0---12s0--------0-0-0-0-0---------------------------------|

[3/4] [2/4]  
 
 PM------| PM------|

T T T T S S S S E T T T T S S T T T T E T T T T E
 
 |------------------------------------|-----------------------||
 |------------------------------------|-3-3-3-3-3--3-3-3-3-3-o||
 |------------------7b7.5-------------|-3-3-3-3-3--3-3-3-3-3--||
 |------------------x-----------------|-3-3-3-3-3--3-3-3-3-3--||
 |------------------5b5.5-------------|-1-1-1-1-1--1-1-1-1-1-o||
 |-0-0-0-0-0---12s0-------0-0-0-0-0---|-----------------------||

[4/4] S S S S E S S S S S S T T T T E
 
 |---------------------------------------------------------------------------|
 |---------------------------------------------------------------------------|
 |---------19b19.5---19--------------19b19.5-19b19.5-19b19.5-19b19.5-19b19.5-|
 |----------x---------x---------------x-------x-------x-------x-------x------|
 |---------17--------17b17.5---------17------17------17------17------17------|
 |-0-0-0-0---------------------0-0-0-----------------------------------------|

[3/4] S S S S E S S S S S S [2/4] T T T T E T T T T E
 
 |-----------------------------------|----------------------|
 |-----------------------------------|-3-3-3-3-3-3-3-3-3-3--|
 |---------19b19.5---19--------------|-3-3-3-3-3-3-3-3-3-3--|
 |----------x---------x--------------|-3-3-3-3-3-3-3-3-3-3--|
 |---------17--------17b17.5---------|-1-1-1-1-1-1-1-1-1-1--|
 |-0-0-0-0---------------------0-0-0-|----------------------|

[4/4] S S S S E S S S S S S T T T T E
 
 |---------------------------------------------------------------------------|
 |---------------------------------------------------------------------------|
 |---------14b14.5---14--------------14------14------14------14------14------|
 |----------x---------x---------------x-------x-------x-------x-------x------|
 |---------12--------12b12.5---------12b12.5-12b12.5-12b12.5-12b12.5-12b12.5-|
 |-0-0-0-0---------------------0-0-0-----------------------------------------|

|
| Gtr I
| S S S S E S S S S S S T T T T E
 
 |---------------------------------------------------------------------------|
 |---------------------------------------------------------------------------|
 |---------19b19.5---19--------------19b19.5-19b19.5-19b19.5-19b19.5-19b19.5-|
 |----------x---------x---------------x-------x-------x-------x-------x------|
 |---------17--------17b17.5---------17------17------17------17------17------|
 |-0-0-0-0---------------------0-0-0-----------------------------------------|

[3/4] S S S S E S S S S S S [2/4] T T T T E T T T T E
 
 |-----------------------------------|--------------------------------|
 |-----------------------------------|--------------------------------|
 |---------14b14.5---14--------------|-15-15-15-15-15-15-15-15-15-15--|
 |----------x---------x--------------|--x--x--x--x--x--x--x--x--x--x--|
 |---------12--------12b12.5---------|-13-13-13-13-13-13-13-13-13-13--|
 |-0-0-0-0---------------------0-0-0-|--------------------------------|

|
| S S S S E S S S S S S T T T T E T T T T E
 
 |-----------------------------------|--------------------------------|
 |-----------------------------------|--------------------------------|
 |---------19b19.5---19--------------|-15-15-15-15-15-15-15-15-15-15--|
 |----------x---------x--------------|--x--x--x--x--x--x--x--x--x--x--|
 |---------17--------17b17.5---------|-13-13-13-13-13-13-13-13-13-13--|
 |-0-0-0-0---------------------0-0-0-|--------------------------------|

Pre-Chorus
[4/4]  
 
 PM------------|

Q Q Q Q Q Q Q Q Q Q Q Q Q Q S S S S S S S S
 
 |-----------------|-----------------|-------------|-------------------------|
 |-----------------|-----------------|-------------|-------------------------|
 |-----------------|-----------------|-------------|-------------------------|
 |-----------------|-----------------|-------------|-------------------------|
 |-----------------|-----------------|-12--3--0--8-|-12--3-------------------|
 |-/12---\3--0--/8-|-/12---\3--0--/8-|-12--3--0--8-|-12--3---0-0-0-8-8-8-8-8-|

|
| TP TP TP TP TP TP TP TP
| W W Q Q Q Q Q Q Q Q
 
 |-----------------|-----------------|-------------|-------------------------|
 |-----------------|-----------------|-10----------|-10----------------------|
 |-----------------|-----------------|-----5-----3-|-------5-----------3-----|
 |--------------|-------------|--------3----|-------------3-----------|
 |-----------------|-----------------|-------------|-------------------------|
 |-----------------|-----------------|-------------|-------------------------|

Chorus
S S S E S S S S S S S S S S S
 
 |----------------------------------------------------------------------|
 |----------------------------------------------------------------------|
 |----------------------------------------------------------------------|
 |----------------------------------------------------------------------|
 |-/12------12-12-12---------3------3--3-------0-0--0------0--8-8--8--8-|
 |-/12------12-12-12---------3------3--3-------0-0--0------0--8-8--8--8-|

|
| S S S S S S S S S S S S S S S S
 
 |----------------------------------------------------------------------|
 |-----------0--0-10b10.5-0-------------------13-0-------------------10-|
 |--10b10.5-----------------10b10.5-0-10b10.5---------------------------|
 |-------------------------------------------------12b12.5-0-12-0-12----|
 |----------------------------------------------------------------------|
 |----------------------------------------------------------------------|

S S S E S S S S S S S S S S S
 
 |----------------------------------------------------------------------|
 |----------------------------------------------------------------------|
 |----------------------------------------------------------------------|
 |----------------------------------------------------------------------|
 |-/12------12-12-12---------3------3--3-------0-0--0------0--8-8--8--8-|
 |-/12------12-12-12---------3------3--3-------0-0--0------0--8-8--8--8-|

|
| S S S S S S S S S S S S S S S S
 
 |----------------------------------------------------------------------|
 |-----------0--0-10b10.5-0-------------------13-0-------------------10-|
 |--10b10.5-----------------10b10.5-0-10b10.5---------------------------|
 |-------------------------------------------------12b12.5-0-12-0-12----|
 |----------------------------------------------------------------------|
 |----------------------------------------------------------------------|

S S S E S S S S S S S S S S S
 
 |----------------------------------------------------------------------|
 |----------------------------------------------------------------------|
 |----------------------------------------------------------------------|
 |----------------------------------------------------------------------|
 |-/12------12-12-12---------3------3--3-------0-0--0------0--8-8--8--8-|
 |-/12------12-12-12---------3------3--3-------0-0--0------0--8-8--8--8-|

|
| S S S S S S S S S S S S S S S S
 
 |----------------------------------------------------------------------|
 |-----------0--0-10b10.5-0-------------------13-0-------------------10-|
 |--10b10.5-----------------10b10.5-0-10b10.5---------------------------|
 |-------------------------------------------------12b12.5-0-12-0-12----|
 |----------------------------------------------------------------------|
 |----------------------------------------------------------------------|

S S S E S S S S S S S S S S S
 
 |----------------------------------------------------------------------|
 |----------------------------------------------------------------------|
 |----------------------------------------------------------------------|
 |----------------------------------------------------------------------|
 |-/12------12-12-12---------3------3--3-------0-0--0------0--8-8--8--8-|
 |-/12------12-12-12---------3------3--3-------0-0--0------0--8-8--8--8-|

|
| S S S S S S S S S S S S S S S S
 
 |----------------------------------------------------------------------|
 |-----------0--0-10b10.5-0-------------------13-0-------------------10-|
 |--10b10.5-----------------10b10.5-0-10b10.5---------------------------|
 |-------------------------------------------------12b12.5-0-12-0-12----|
 |----------------------------------------------------------------------|
 |----------------------------------------------------------------------|

S S S E S S S S S S S S S S S
 
 |----------------------------------------------------------------------|
 |----------------------------------------------------------------------|
 |----------------------------------------------------------------------|
 |----------------------------------------------------------------------|
 |-/12------12-12-12---------3------3--3-------0-0--0------0--8-8--8--8-|
 |-/12------12-12-12---------3------3--3-------0-0--0------0--8-8--8--8-|

|
| S S S S S S S S S S S S S S S S
 
 |----------------------------------------------------------------------|
 |-----------0--0-10b10.5-0-------------------13-0-------------------10-|
 |--10b10.5-----------------10b10.5-0-10b10.5---------------------------|
 |-------------------------------------------------12b12.5-0-12-0-12----|
 |----------------------------------------------------------------------|
 |----------------------------------------------------------------------|

S S S E S S S S S S S S S S S
 
 |----------------------------------------------------------------------|
 |----------------------------------------------------------------------|
 |----------------------------------------------------------------------|
 |----------------------------------------------------------------------|
 |-/12------12-12-12---------3------3--3-------0-0--0------0--8-8--8--8-|
 |-/12------12-12-12---------3------3--3-------0-0--0------0--8-8--8--8-|

|
| S S S S S S S S S S S S S S S S
 
 |----------------------------------------------------------------------|
 |-----------0--0-10b10.5-0-------------------13-0-------------------10-|
 |--10b10.5-----------------10b10.5-0-10b10.5---------------------------|
 |-------------------------------------------------12b12.5-0-12-0-12----|
 |----------------------------------------------------------------------|
 |----------------------------------------------------------------------|

S S S E S S S S S S S S S S S
 
 |----------------------------------------------------------------------|
 |----------------------------------------------------------------------|
 |----------------------------------------------------------------------|
 |----------------------------------------------------------------------|
 |-/12------12-12-12---------3------3--3-------0-0--0------0--8-8--8--8-|
 |-/12------12-12-12---------3------3--3-------0-0--0------0--8-8--8--8-|

|
| S S S S S S S S S S S S S S S S
 
 |----------------------------------------------------------------------|
 |-----------0--0-10b10.5-0-------------------13-0-------------------10-|
 |--10b10.5-----------------10b10.5-0-10b10.5---------------------------|
 |-------------------------------------------------12b12.5-0-12-0-12----|
 |----------------------------------------------------------------------|
 |----------------------------------------------------------------------|

S S S E S S S S S S S S S S S
 
 |----------------------------------------------------------------------|
 |----------------------------------------------------------------------|
 |----------------------------------------------------------------------|
 |----------------------------------------------------------------------|
 |-/12------12-12-12---------3------3--3-------0-0--0------0--8-8--8--8-|
 |-/12------12-12-12---------3------3--3-------0-0--0------0--8-8--8--8-|

|
| S S S S S S S S S S S S S S S S
 
 |----------------------------------------------------------------------|
 |-----------0--0-10b10.5-0-------------------13-0-------------------10-|
 |--10b10.5-----------------10b10.5-0-10b10.5---------------------------|
 |-------------------------------------------------12b12.5-0-12-0-12----|
 |----------------------------------------------------------------------|
 |----------------------------------------------------------------------|

Outro
[6/4] Gtrs I, II[4/4]
E. T T E. S S. S. S E. T T E. S S. S. S E E H.
 
 |------------------------------------------------|-----------*|
 |--------3-------3------------3-------------3----|-----------*|
 |--------3-------3------------3-------------3----|-----------*|
 |-0------3--0-0--3--0-0-------3--------0-0--3--0-|-0---------*|
 |-0------1--0-0--1--0-0-------1--------0-0--1--0-|-0---------*|
 |-0--0-0----0-0-----0-0--0-0-----------0-0-----0-|-0---------*|

|
| Q E Q Q Q E Q E E H.
 
 |------------------------------------------------|-----------*|
 |----------------------------16b17.5-------------|-----------*|
 |------------------------------------------------|-----------*|
 |------------------------------------------------|-0---------*|
 |------------------------------------------------|-0---------*|
 |------------------------------------------------|-0---------*|

Duration Legend
 
 ---------------
 W - whole; H - half; Q - quarter; E - 8th; S - 16th; T - 32nd; X - 64th; a - acciaccatura

+ - note tied to previous; . - note dotted; .. - note double dotted
Uncapitalized letters represent notes that are staccato (1/2 duration)
Irregular groupings are notated above the duration line
Duration letters will always appear directly above the note/fret number it represents the
duration for. Duration letters with no fret number below them represent rests. Multi-
bar rests are notated in the form Wxn, where n is the number of bars to rest for. Low
melody durations appear below the staff
Tablature Legend
 
 ----------------

h - hammer-on
p - pull-off
b - bend
pb - pre-bend
r - bend release (if no number after the r, then release immediately)
/\ - slide into or out of (from/to "nowhere")
s - legato slide
S - shift slide
- natural harmonic
(n) - artificial harmonic
n(n) - tapped harmonic
~ - vibrato
tr - trill
T - tap
TP - trem. picking
PM - palm muting
\n/ - tremolo bar dip; n = amount to dip
\n - tremolo bar down
n/ - tremolo bar up
/n\ - tremolo bar inverted dip
= - hold bend; also acts as connecting device for hammers/pulls
- volume swell (louder/softer)
x - on rhythm slash represents muted slash
o - on rhythm slash represents single note slash
Misc Legend
 
 -----------

| - bar
|| - double bar
||o - repeat start
o|| - repeat end
*| - double bar (ending)
: - bar (freetime)
$ - Segno
& - Coda
Tempo markers - = BPM(8/16=s8/s16), where s8 = swing 8ths, s16 = swing 16ths

Important: The song above is NOT stored on the Chordie server. The original song is hosted at www.guitaretab.com. Chordie works as a search engine and provides on-the-fly formatting. Chordie does not index songs against artists'/composers' will. To remove this song please click here.

Text color:
Chord color:
Chord grids: 
Font size:    
Page size: 

E
Rate #1 of 2 versions

Login - add to songbook

SHARE PAGE  



You need to log in to post comments