Guitar Tabs, Chords and Lyrics
Server problems seems to be fixed. Chordie has been experiencing problems with songs disappearing. These issues now seems to be fixed, but still verifying the fix. If you find anything strange, please email admin@chordie.com.


Nuclear War   Nuclear Assault

 
 [-------------------------------PM------------------------------------]
 E------------------------------------------------------------------------|
 B------------------------------------------------------------------------|
 G------------------------------------------------------------------------|
 D--------------7-8--------------10-8--------------7-8-10-8-7--------10-8-|
 A-7-7-7-7-8-10-----7-7-7-7-8-10------7-7-7-7-8-10------------10-8-7------|
 E-0-0-0-0----------0-0-0-0-----------0-0-0-0-----------------------------|

 


 


 Guitar 1


 

 
 [-------------------------------PM------------------------------------]
 E[------------------------------------------------------------------------|
 B[------------------------------------------------------------------------|
 G[------------------------------------------------------------------------|
 D[--------------7-8--------------10-8--------------7-8-10-8-7--------10-8-|
 A[-7-7-7-7-8-10-----7-7-7-7-8-10------7-7-7-7-8-10------------10-8-7------|
 E[-0-0-0-0----------0-0-0-0-----------0-0-0-0-----------------------------|

 


 [Guitar 2


 

 
 E[------------------------------------------------------------------------|
 B[------------------------------------------------------------------------|
 G[------------------------------------------------------------------------|
 D[------------------------------------------------------------------------|
 A[-----2--------2-------2---------2--------2--------2-------2-------2-----|
 E[-----0--------0-------0---------0--------0--------0-------0-------0-----|

 


 


 Main Riff


 


 Guitar 1


 

 
 [-------------------------------PM------------------------------------]
 E[------------------------------------------------------------------------|
 B[------------------------------------------------------------------------|
 G[------------------------------------------------------------------------|
 D[--------------7-8--------------10-8--------------7-8-10-8-7--------10-8-|
 A[-7-7-7-7-8-10-----7-7-7-7-8-10------7-7-7-7-8-10------------10-8-7------|
 E[-0-0-0-0----------0-0-0-0-----------0-0-0-0-----------------------------|

 


 [Guitar 2


 

 
 [[-------------------------------PM------------------------------------]
 E[------------------------------------------------------------------------|
 B[------------------------------------------------------------------------|
 G[------------------------------------------------------------------------|
 D[-------------------------------------------------7-8-10-8-7--------10-8-|
 A[-7-7-7-7-7-7-7-7-7-7-7-7-7-7-7-7-7-7-7-7-7-7-7-7------------10-8-7------|
 E[-0-0-0-0-0-0-0-0-0-0-0-0-0-0-0-0-0-0-0-0-0-0-0-0------------------------|

 


 


 Rpt 2 X


 


 Both guitars


 

 
 [-------------------------------PM------------------------------------]
 E------------------------------------------------------------------------|
 B------------------------------------------------------------------------|
 G------------------------------------------------------------------------|
 D--------------7-8--------------10-8--------------7-8-10-8-7--------10-8-|
 A-7-7-7-7-8-10-----7-7-7-7-8-10------7-7-7-7-8-10------------10-8-7------|
 E-0-0-0-0----------0-0-0-0-----------0-0-0-0-----------------------------|

 


 


 Rpt 2 X


 


 Verse


 


 

 
 [---------PM--------] [-------------PM-----------] PM
 E-------------------------------------------------------------------|
 B-------------------------------------------------------------------|
 G-------------------------------------------------------------------|
 D---------------------0-3/4-----------------------------0-3/4---5---|
 A-2-3---3-2-----------0-1/2-3-2---------3---3-----------0-1/2---3---|
 E-0-1p0-1p0-0-0-0-0-0-------1p0-0-0-0-0-1p0-1-0-0-0-0-0-------0-----| Rpt 4 X

 


 


 Chorus


 


 Guitar 1


 

 
 E[--------------------------------|
 B[--------------------------------|
 G[-2--(2)----------3----(3)-------|
 D[-2--(2)--5--(5)--3----(3)-------|
 A[-0--(0)--5--(5)--1----(1)-------|
 E[---------3--(3)-----------------|

 


 [Guitar 2


 [ ~~~~~~~~~~~~~~~~~~~~~~~~~~~~~


 

 
 E[--------------------------------|
 B[--------------------------------|
 G[--------------------------------|
 D[--------------------------------|
 A[--------------------------------|
 E[-5-------3-------6--------------|

 


 [Guitar 3


 [ ~~~~~~~~~~~~~~~~~~~~~~~~~~~~~


 

 
 E[--------------------------------|
 B[--------------------------------|
 G[--------------------------------|
 D[-7-------5-------8--------------|
 A[--------------------------------|
 E[--------------------------------|Rpt 4 X

 


 


 Rpt Verse


 Rpt Chorus


 


 Rpt Main Riff 4 X


 


 Backing for solo


 


 

 
 [----PM-----] [----PM----]
 E---------------------------------|
 B---------------------------------|
 G---------------------------------|
 D-----4---3---7\6---4-----3-------|
 A-2-2-2-2-1-2-5\4-2-2-2-2-1-2-5\4-|
 E-0-0---0---0-----0-0---0---0-3\2-| Rpt 5 X
 [----PM-----] [----PM----]
 E-----------------------------------|
 B-----------------------------------|
 G-----------------------------------|
 D-----4---3---7\6---4-----3---------|
 A-2-2-2-2-1-2-5\4-2-2-2-2-1-2-5\4/5-|
 E-0-0---0---0-----0-0---0---0-3\2/3-|
 [----PM-----] [----PM----]
 E---------------------------------|
 B---------------------------------|
 G---------------------------------|
 D-----4---3---7\6---4-----3-------|
 A-2-2-2-2-1-2-5\4-2-2-2-2-1-2-5\4-|
 E-0-0---0---0-----0-0---0---0-3\2-|
 [----PM-----] [----PM----]
 E-----------------------------------|
 B-----------------------------------|
 G-----------------------------------|
 D-----4---3---7\6---4-----3---------|
 A-2-2-2-2-1-2-5\4-2-2-2-2-1-2-5\4/5-|
 E-0-0---0---0-----0-0---0---0-3\2/3-|

 


 


 Guitar 1


 

 
 [--------------PM---------------]
 E[-------------------------------------------------|
 B[-------------------------------------------------|
 G[-------------------------------------------------|
 D[-2------(2)------9-9-9-9-9-9-9-9-9-9-9-9---------|
 A[-2------(2)------7-7-7-7-101010107-7-7-7-8-8-8-8-|
 E[-0------(0)------0-0-0-0-0-0-0-0-0-0-0-0-6-6-6-6-|

 


 [Guitar 2


 

 
 [[----------------------PM-----------------------]
 E[-------------------------------------------------|
 B[-------------------------------------------------|
 G[-------------------------------------------------|
 D[-9-9-9-9-9-9-9-9-9-9-9-9-9-9-9-9-9-9-9-9---------|
 A[-7-7-7-7-8-8-8-8-7-7-7-7-101010107-7-7-7-8-8-8-8-|
 E[-0-0-0-0-0-0-0-0-0-0-0-0-0-0-0-0-0-0-0-0-6-6-6-6-|

 


 


 Guitar 1


 

 
 [--------------PM---------------]
 E[-------------------------------------------------|
 B[-------------------------------------------------|
 G[-------------------------------------------------|
 D[-9------(9)------9-9-9-9-9-9-9-9-9-9-9-9---------|
 A[-7------(7)------7-7-7-7-101010107-7-7-7-8-8-8-8-|
 E[-0------(0)------0-0-0-0-0-0-0-0-0-0-0-0-6-6-6-6-|

 


 [Guitar 2


 

 
 [[-------------------PM--------------------------]
 E[-------------------------------------------------|
 B[-------------------------------------------------|
 G[-------------------------------------------------|
 D[-9-9-9-9-9-9-9-9-9-9-9-9-9-9-9-9-9-9-9-9---------|
 A[-7-7-7-7-8-8-8-8-7-7-7-7-101010107-7-7-7-8-8-8-8-|
 E[-0-0-0-0-0-0-0-0-0-0-0-0-0-0-0-0-0-0-0-0-6-6-6-6-| Rpt 7 X
 E------|
 B------|
 G------|

 


 D-8----|


 A-8----|


 E-6----|


 


 Rpt Main Riff 4 X


 


 

 
 E-------|
 B-------|

 


 G-9\----|


 D-9\----|


 A-7\----|


 

 
 E-------|


Important: The song above is NOT stored on the Chordie server. The original song is hosted at www.guitaretab.com. Chordie works as a search engine and provides on-the-fly formatting. Chordie does not index songs against artists'/composers' will. To remove this song please click here.

This song is displayed as text-only. Transposing and tuning is only available for chordpro-songs.
Rate #1 of 2 versions

Jango Player

Login - add to songbook

SHARE PAGE  




You need to log in to post comments