Guitar Tabs, Chords and Lyrics
Server problems seems to be fixed. Chordie has been experiencing problems with songs disappearing. These issues now seems to be fixed, but still verifying the fix. If you find anything strange, please email admin@chordie.com.


Live, Suffer, Die   Nuclear Assault

 
 [--PM--] [--PM--] [--PM-] [-PM--]
 E[---------------------------------------------------------|
 B[---------------------------------------------------------|
 G[---------------------------------------------------3-----|
 D[-2------7-8p7\5-7--------3-2-------7-8p7\5-7-------1---2-|
 A[-000000-----------000000-1-0-00000-----------00000---5-0-|
 E[-----------------------------------------------------3---|

 


 [Guitar 2


 

 
 [ [----------PM----------] [----------PM---------]
 E[---------------------------------------------------------|
 B[---------------------------------------------------------|
 G[---------------------------------------------------------|
 D[-2-----------------------3-2-----------------------3---2-|
 A[-0000000000000000000000001-0-00000000000000000000001-5-0-|
 E[-----------------------------------------------------3---|

 


 


 Guitar 1


 

 
 [--PM--] [--PM--] [--PM-]
 E[-----------------------------------------------------------------------|
 B[-----------------------------------------------------------------------|
 G[---------------------------------------------------3-------------------|
 D[-2------7-8p7\5-7--------3-2-------7-8p7\5-7-7p5-7p5-7p5-7p5-7p5-7p5-7-|
 A[-000000-----------000000-1-0-00000-------------------------------------|
 E[-----------------------------------------------------------------------|

 


 [Guitar 2


 

 
 [ [----------PM----------] [-------------------PM------------------]
 E[-----------------------------------------------------------------------|
 B[-----------------------------------------------------------------------|
 G[-----------------------------------------------------------------------|
 D[-2-----------------------3-2-----------------------------------------3-|

 


 A[-0000000000000000000000001-0-00000000000000000000000000000000000000001-|


 

 
 E[-----------------------------------------------------------------------|

 


 


 Both guitars


 


 

 
 [--PM--] [--PM--] [--PM-] [-PM--]
 E---------------------------------------------------------|
 B---------------------------------------------------------|
 G---------------------------------------------------3-----|
 D-2------7-8p7\5-7--------3-2-------7-8p7\5-7-------1---2-|
 A-000000-----------000000-1-0-00000-----------00000---5-0-|
 E-----------------------------------------------------3---| Rpt 3 X
 [--PM--] [--PM--] [--PM-] [-PM--]
 E-------------------------------------------------------|
 B-------------------------------------------------------|
 G---------------------------------------------------3---|
 D-2------7-8p7\5-7--------3-2-------7-8p7\5-7-------1---|
 A-000000-----------000000-1-0-00000-----------00000---5-|
 E-----------------------------------------------------3-|
 [-------------PM--------------] PM [-PM-]
 E----------------------------------------------------|
 B----------------------------------------------------|
 G----------------------------------------------------|
 D--------------------------------3------4/5------4-4-|
 A------3------5------7-----------1-3----2/3------2-2-|
 E-0000-1-0000-3-0000-5-0000-0000---1-00-----0000-----| Rpt
 [--PM--] [--PM--] [--PM-] [-PM--]
 E---------------------------------------------------------|
 B---------------------------------------------------------|
 G---------------------------------------------------3-----|
 D-2------7-8p7\5-7--------3-2-------7-8p7\5-7-------1---2-|
 A-000000-----------000000-1-0-00000-----------00000---5-0-|
 E-----------------------------------------------------3---| Rpt 3 X
 [--PM--] [--PM--] [--PM-] [-PM--]
 E-------------------------------------------------------|
 B-------------------------------------------------------|
 G---------------------------------------------------3---|
 D-2------7-8p7\5-7--------3-2-------7-8p7\5-7-------1---|
 A-000000-----------000000-1-0-00000-----------00000---5-|
 E-----------------------------------------------------3-|
 [-------------PM--------------] [-PM-] PM
 E--------------------------------------------------|
 B--------------------------------------------------|
 G--------------------------------------------------|
 D---------------------------------------5-5-7-4----|
 A------3------5------7-----------3------3-3-5-2----|
 E-0000-1-0000-3-0000-5-0000-0000-1-0000---------00-|
 [-------------PM--------------]
 E------------------------------------------|
 B------------------------------------------|
 G------------------------------------------|
 D---------------------------------5-5-4-/--|
 A-22---3---3/5---5/7--------------3-3-2-/--|
 E-0000-1-0-1/3-0-3/5-0000-1p0-3p0----------|

 


 


 Guitar 1


 [PM] 


 

 
 E[--------------------------------------------------|
 B[--------------------------------------------------|
 G[-9-9\7-9-----9-9\7-9-x-10-9-9\7-9----9-9\7-9-x-10-|
 D[-9-9\7-9-----9-9\7-9-x-10-9-9\7-9----9-9\7-9-x-10-|
 A[-7-7\5-7---5-7-7\5-7-x-8--7-7\5-7----7-7\5-7-x-8--|
 E[---------07------------------------6--------------|

 


 [ [Guitar 2


 [ PM] 


 

 
 E[--------------------------------------------------|
 B[--------------------------------------------------|
 G[--------------------------------------------------|
 D[-----------------------10----------------------10-|
 A[-7-7\5-7---5-7-7\5-7-x-8--7-7\5-7----7-7\5-7-x-8--|
 E[---------07------------------------6--------------|

 


 


 Guitar 1


 [PM] 


 

 
 E[-------------------------------------|
 B[-------------------------------------|
 G[-9-9\7-9-----9-9\7-9-x-10-9-9\7-9----|
 D[-9-9\7-9-----9-9\7-9-x-10-9-9\7-9----|
 A[-7-7\5-7---5-7-7\5-7-x-8--7-7\5-7-8--|
 E[---------07-----------------------6--|

 


 [ [Guitar 2


 [ PM] 


 

 
 E[-------------------------------------|
 B[-------------------------------------|
 G[-------------------------------------|
 D[-----------------------10------------|
 A[-7-7\5-7---5-7-7\5-7-x-8--7-7\5-7----|
 E[---------07-----------------------6--|
 E--------------------------------------------------------------|
 B--------------------------------------------------------------|
 G--------------------------------------------------------------|
 D--------------------------------------------------------------|
 A-----------3-2-----------2-1-----------1---------------3---2--|
 E-22-3-0-22-----22-3-0-22-----22-3-0-22---3-22-3-0-22-x---x----| Rpt
 E--------------------------------------------------------|
 B--------------------------------------------------------|
 G--------------------------------------------------------|
 D-----------3-2-------------------------3-2--------------|
 A-22-3-5-22-----22-3-5-22-0-2-22-3-5-22-----22-3-5-22-0--|
 E--------------------------------------------------------|
 E-------------------------------------------------------|
 B-------------------------------------------------------|
 G-------------------------------------------------------|
 D-------------------------------------------------------|
 A-----------3-2-----------5-4-----------3-2-------------|
 E-22-3-0-22-----22-3-0-22-----22-3-0-22-----22-3-5-22-0-|
 E---------------------------|
 B---------------------------|
 G------------------9-9-10\--|
 D------------------9-9-10\--|
 A-4--4--2--8--(8)--7-7-8\---|
 E-2--2--0--6--(6)-----------|


Important: The song above is NOT stored on the Chordie server. The original song is hosted at www.guitaretab.com. Chordie works as a search engine and provides on-the-fly formatting. Chordie does not index songs against artists'/composers' will. To remove this song please click here.

This song is displayed as text-only. Transposing and tuning is only available for chordpro-songs.
Rate #2 of 2 versions

Login - add to songbook

SHARE PAGE  



You need to log in to post comments