Guitar Tabs, Chords and Lyrics
Server problems seems to be fixed. Chordie has been experiencing problems with songs disappearing. These issues now seems to be fixed, but still verifying the fix. If you find anything strange, please email admin@chordie.com.


Adrenaline   12 Stones

 
 D|-----------------------------------------------|
 A|-----------------------------------------------|
 F|-----------------------------------------------|
 C|-----------------------------------------------|
 G|------------------------------------------10---|
 C|---12-0-10-12-13-12-0-00-10-12-13-12-10-12--12-|x3

 


 


 Pull up with whammy bar


 

 
 D|--------------------------------------------------------|
 A|-----------------------------------------------[12]/////|
 F|-----------------------------------------------[12]/////|
 C|--------------------------------------------------------|
 G|------------------------------------------10h12---------|
 C|---12-0-10-12-13-12-0-00-10-12-13-12-10-12--------------|

 


 


 Intro 2: Wah off


 

 
 D|-------------------------------------------------|
 A|-------------------------------------------------|
 F|-------------------------------------------------|
 C|-------------------------------------------------|
 G|---12-0-10-12-13-12-0-00-10-12-13-12-10-12-10-12-|
 C|---12-0-10-12-13-12-0-00-10-12-13-12-10-12----12-|x3

 


 


 Verse:


 

 
 D|----------------------------------|
 A|----------------------------------|
 F|----------------------------------|
 C|----------------------------------|
 G|---12-0-10-12-13-12-0-00-10-12-13-|
 C|---12-0-10-12-13-12-0-00-10-12-13-|
 D|----------------------------------------|
 A|----------------------------------------|
 F|----------------------------------------|
 C|0-00---0-0-3-0-3-55--0-00---0-0-3-0-6-55|
 G|0-00---0-0-3-0-3-55--0-00---0-0-3-0-6-55|
 C|0-00---0-0-3-0-3-55--0-00---0-0-3-0-6-55|x1
 D|-----------------------------------|
 A|-----------------------------------|
 G|-----------------------------------|
 C|0-00--0-0-3-0-3-55--0-00---0x\\\\\\|
 G|0-00--0-0-3-0-3-55--0-00---0x\\\\\\|
 C|0-00--0-0-3-0-3-55--0-00---0x\\\\\\|

 


 


 Verse Pt 2:


 


 

 
 D|-------------------------------------------------|
 A|-------------------------------------------------|
 F|-------------------------------------------------|
 C|-------------------------------------------------|
 G|---12-0-10-12-13-12-0-00-10-12-13-12-10-12-10-12-|
 C|---12-0-10-12-13-12-0-00-10-12-13-12-10-12----12-|x3
 D|----------------------------------------------|
 A|----------------------------------------------|
 F|----------------------------------------------|
 C|----------------------------------------------|
 G|---12-0-10-12-13-12-0-00-10-12-13-12-10-12-10-|
 C|---12-0-10-12-13-12-0-00-10-12-13-12-10-12----|

 


 


 Chorus:


 


 gtr:1


 

 
 D|------------------------------------------------------------------|
 A|------------------------------------------------------------------|
 F|---------3-3-33-3-3--------------------------3-3-33-3-3-----------|
 C|---0-0-0/3-3-33-3-3--3-3-3-5-5-55-5-5\-0-0-0/3-3-33-3-3--3--3-3---|
 G|---0-0-0/1-1-11-1-1--3-3-3-5-5-55-5-5\-0-0-0/1-1-11-1-1--3--3-3---|
 C|---0-0-0-------------3-3-3-5-5-55-5-5\-0-0-0-------------3--3-3---|
 D|--------------|--------------------------------------------------------|
 A|--------------|--------------------------------------------------------|
 F|--------------|------3-3-33-3-3------------------------3-3-33----------|
 C|--5-5-5--555--|0-0-0/3-3-33-3-3--3-3-5-5-55-5-5\-0-0-0/3-3-33--3--3-3-5|
 G|--5-5-5--555--|0-0-0/1-1-11-1-1--3-3-5-5-55-5-5\-0-0-0/1-1-11--3--3-3-5|
 C|--5-5-5--555--|0-0-0-------------3-3-5-5-55-5-5\-0-0-0---------3--3-3-5|x2

 


 


 


 gtr:2 plays this the second half of guitar 1's chorus


 


 

 
 D|---------------------|--------------------------------------------------|
 A|---------------------|--------------------------------------------------|
 F|--12-12-12--121212\11|11-11-11/12-12-12-12/14-14-14-14-14\12-12-12-12\11|
 C|---x--x--x---x-x-x\-x|-x--x--x/-x--x--x--x/-x--x--x--x--x\-x--x--x--x\-x|
 G|--10-10-10--101010\-9|-9--9--9/10-10-10-10/12-12-12-12-12\10-10-10-10\-9|
 C|---------------------|-------------------------------------------------|x2

 


 


 Verse 2:


 


 

 
 D|-------------------------------------------------|
 A|-------------------------------------------------|
 F|-------------------------------------------------|
 C|-------------------------------------------------|
 G|---12-0-10-12-13-12-0-00-10-12-13-12-10-12-10-12-|
 C|---12-0-10-12-13-12-0-00-10-12-13-12-10-12----12-|
 D|---------------------------------------------|
 A|---------------------------------------------|
 F|---------------------------------------------|
 C|---------------------------------------------|
 G|---12-0-10-12-13-12-0-00-10-12-13-12-10-12-10|
 C|---12-0-10-12-13-12-0-00-10-12-13-12-10-12---|
 D|----------------------------------------|
 A|----------------------------------------|
 F|----------------------------------------|
 C|0-00---0-0-3-0-3-55--0-00---0-0-3-0-6-55|
 G|0-00---0-0-3-0-3-55--0-00---0-0-3-0-6-55|
 C|0-00---0-0-3-0-3-55--0-00---0-0-3-0-6-55|x1
 D|-----------------------------------|
 A|-----------------------------------|
 G|-----------------------------------|
 C|0-00--0-0-3-0-3-55--0-00---0x\\\\\\|
 G|0-00--0-0-3-0-3-55--0-00---0x\\\\\\|
 C|0-00--0-0-3-0-3-55--0-00---0x\\\\\\|

 


 


 Verse pt 2:


 

 
 D|-------------------------------------------------|
 A|-------------------------------------------------|
 F|-------------------------------------------------|
 C|-------------------------------------------------|
 G|---12-0-10-12-13-12-0-00-10-12-13-12-10-12-10-12-|
 C|---12-0-10-12-13-12-0-00-10-12-13-12-10-12----12-|x3

 


 


 Chorus again


 


 Solo Build up: with wah


 


 

 
 D|------------------------------------|
 A|------------------------------------|
 F|------------------------------------|
 C|------------------------------------|
 G|----------------------------101010--|
 C|-0-0-5h7-0-0-7h10-0-0-10h12---------|x3
 D|-----------------------------------------|
 A|-----------------------------------------|
 F|-----------------------------------------|
 C|---------------------------------x\\\\---|
 G|---------------------------------x\\\\---|
 C|-0-0-10h12-0-0-10h12-0-0-10h12---x\\\\---|

 


 


 Solo: It's not 100% but it sounds good. You will need wah


 


 

 
 D|------------------------------------------|
 A|-----------------13-----------------------|
 F|---12--10--10-12b14-14r12p10-12-10--------|
 C|-12--12--12-----------------------12-10-12|
 G|------------------------------------------|
 C|------------------------------------------|
 D|------------------------------------------------------------------------|
 A|------------------------------------------------------------------------|
 F|-10h12p10h12p10h12p10h12p10h12p10h12p10h12p10h12p10h12p10h12p10---------|
 C|---------------------------------------------------------------12p10h12~|
 G|------------------------------------------------------------------------|
 C|------------------------------------------------------------------------|
 D|-----------------------------------------------------------------------|
 A|----13---------------14-1412-10/12\10----------------------------------|
 F|-10-12b14r12p10--10--14-1412-10/12\10----------------------------------|
 C|---------------12~~------------------12p10h12~------------------7/12~~\|
 G|----------------------------------------------12p11p10\8h10p8\5--------|
 C|-----------------------------------------------------------------------|

 


 


 Breakdown/Verse:


 


 

 
 D|----------------------------------------|
 A|----------------------------------------|
 F|----------------------------------------|
 C|0-00---0-0-3-0-3-55--0-00---0-0-3-0-6-55|
 G|0-00---0-0-3-0-3-55--0-00---0-0-3-0-6-55|
 C|0-00---0-0-3-0-3-55--0-00---0-0-3-0-6-55|x1

 


 


 Pull up with whammy bar


 

 
 D|-----------------------------------------|
 A|--------------------------[12]////-------|
 G|--------------------------[12]////-------|
 C|0-00--0-0-3-0-3-55--0-00-----------------|
 G|0-00--0-0-3-0-3-55--0-00-----------------|
 C|0-00--0-0-3-0-3-55--0-00-----------------|

 


 


 Chorus again


 


 Outro:


 


 

 
 D|-------------------------------------------------|
 A|-------------------------------------------------|
 F|-------------------------------------------------|
 C|-------------------------------------------------|
 G|---12-0-10-12-13-12-0-00-10-12-13-12-10-12-10-12-|
 C|---12-0-10-12-13-12-0-00-10-12-13-12-10-12----12-|x7
 D|----------------------------------------------|---|
 A|----------------------------------------------|---|
 F|----------------------------------------------|---|
 C|----------------------------------------------|0-0|
 G|---12-0-10-12-13-12-0-00-10-12-13-12-10-12-10-|0-0|
 C|---12-0-10-12-13-12-0-00-10-12-13-12-10-12----|0-0|x2
 D|------------|
 A|------------|
 G|------------|


Important: The song above is NOT stored on the Chordie server. The original song is hosted at www.guitaretab.com. Chordie works as a search engine and provides on-the-fly formatting. Chordie does not index songs against artists'/composers' will. To remove this song please click here.

This song is displayed as text-only. Transposing and tuning is only available for chordpro-songs.
Rate #1 of 2 versions

Jango Player

Login - add to songbook

SHARE PAGE  



You need to log in to post comments