Guitar Tabs, Chords and Lyrics
Server problems seems to be fixed. Chordie has been experiencing problems with songs disappearing. These issues now seems to be fixed, but still verifying the fix. If you find anything strange, please email admin@chordie.com.


Broken Road  12 Stones

Song: Broken Road
Tuning: Standard
The intro is close enough, I use arpeggios of A, B, C#m
Intro:
[A] [B] [C#m] [B] [A] [B] [C#m] [B]  
 
 e|--------------0--------2--------4--------2--------0--------2--------4--------2----|
 B|-------------2-2------4-4------5-5------4-4------2-2------4-4------5-5------4-4---|
 G|------------2---2----4---4----6---6----4---4----2---2----4---4----6---6----4---4--|
 D|2h4p2-1h2--2-----2--4-----4--6-----6--4-----4--2-----2--4-----4--6-----6--4-----4-|
 A|----------0--------2--------4--------2--------0--------2--------4-----------------|
 E|----------------------------------------------------------------------------------|

Or
[A] [B] [C#m] [B] [A] [B] [C#m]  
 
 e|----------------5--------7--------9---------7--------5--------7--------9---------7----|
 B|-----------------5--------7--------9---------7--------5--------7--------9---------7---|
 G|---------------6--6-----8--8-----9--9------8--8-----6--6-----8--8-----9--9------8--8--|
 D|--------------7----7---9----9--11----11---9----9---7----7---9----9--11----11---9----9-|
 A|-7h9p7-8h9---7--------9-------11---------9--------7--------9-------11---------9-------|
 E|------------5--------7--------9---------7--------5--------7--------9---------7--------|

[E]Time Moves slowly while you[C#m]'re gone
[E]I haven't heard your voice in qu[A]ite some time
But I s[C#m]till see your face,
I [B]cannot erase the things you've [F#]done
[F#]And all the ways you kept me hanging on
Chorus
[A]Now You're gon[E]e I've m[C#m]oved on, and I don't feel [B]so sorry
[A]Can't you see, I'm[E] bleed[C#m]ing, But I won't bleed [B]anymore
[A]I've held on for s[E]o long,[C#m] now I have to [B]let you [A]go
At the e[C]nd of our [D]broken [E]road
Verse 2
[E]I know it hurts to hear [C#m]the truth,
[E]maybe I was never meant to be [A]with you
[C#m]and I cannot replace the t[B]ears of disgrace that ru[F#]n for you
cause running from the truth is what you do
Chorus
[A]Now You're gon[E]e I've m[C#m]oved on, and I do[B]n't feel so sorry
[A]Can't you see, I'm[E] bleeding[C#m], But I wo[B]n't bleed anymore
[A]I've held o[E]n for so lon[C#m]g, now I [B]have to let you go[A]
At the e[C]nd of our [D]broken [E]road
Bridge
[C]You are all that I'[D]ve ever know[E]n
And I ca[C]nnot replace, these t[B]ears of disgrace
A[F#]nd I won't bleed for you anymore
Chorus
[A]Now You're gon[E]e I've m[C#m]oved on, and I don't feel [B]so sorry
[A]Can't you see, I'm[E] bleed[C#m]ing, But I won't bleed [B]anymore
[A]I've held on for s[E]o long,[C#m] now I have to [B]let you [A]go
At the e[C]nd of our [D]broken [B]road, And I won't bleed for you anymore
[A] [B]I've moved on, [C#m]And I won't bleed for you anymore
[A] [B] I'm bleedin[C#m]g but I won't bleed anymore
[A] I've held o[B]n For so l[C#m]ong
[B]But I have to let you [A]go
[C]At the end of our [D]broken [E]road
Outro
[A] [B] [C#m] [B] [A] [B] [C#m] [B] [E]  
 
 e|-----0--------2--------4--------2--------0--------2--------4--------2----0|
 B|----2-2------4-4------5-5------4-4------2-2------4-4------5-5------4-4---0|
 G|---2---2----4---4----6---6----4---4----2---2----4---4----6---6----4---4--1|
 D|--2-----2--4-----4--6-----6--4-----4--2-----2--4-----4--6-----6--4-----4-2|
 A|-0--------2--------4--------2--------0--------2--------4-----------------2|
 E|-------------------------------------------------------------------------0|


Important: The song above is NOT stored on the Chordie server. The original song is hosted at www.guitaretab.com. Chordie works as a search engine and provides on-the-fly formatting. Chordie does not index songs against artists'/composers' will. To remove this song please click here.

Text color:
Chord color:
Chord grids: 
Font size:    
Page size: 

A B C C#m D E F#
Rate #1 of 6 versions

Jango Player

Login - add to songbook

SHARE PAGE  



You need to log in to post comments