Guitar Tabs, Chords and Lyrics
Server problems seems to be fixed. Chordie has been experiencing problems with songs disappearing. These issues now seems to be fixed, but still verifying the fix. If you find anything strange, please email admin@chordie.com.


Waiting for Yesterday  12 Stones

As recorded by 12 Stones
(From the 2004 Album POTTER'S FIELD)
Transcribed by Eob Sharew
Words and Music by 12 Stones
Intro/Verse
Q.=51
6[(Em)]/8[(F#m/E#)] [(G/E)] [(D5)]
Gtr I
S S S S S S S S S S S S S S S S S S S S S S S S
 
 ||--------------------------|----------------------------------|
 ||o-------------------------|----------------------------------|
 ||--------------------------|----------------------------------|
 ||--------5-----------7-----|--------9---------------12--------|
 ||o---7-------7---9-------9-|---10-------10----12----------12--|
 ||--0---0---0---0---0---0---|-0----0---0----10----10----10-----|

[A5]E S S S [A]S E S S S S [A5]E S S S S E S S S S
 
 |---------------------|---------------------|
 |---------------------|---------------------|
 |---------6-6-6-6-6-6-|---------------------|
 |-7-7-7-7-7-7-7-7-7-7-|-7-7-7-7-7-7-7-7-7-7-|
 |-7-7-7-7-7-7-7-7-7-7-|-7-7-7-7-7-7-7-7-7-7-|
 |-5-5-5-5-5-5-5-5-5-5-|-5-5-5-5-5-5-5-5-5-5-|

[(Em)]S S S S S S [(F#m/E#)]S S S S S S [(G/E)]S S S S S S [(D5)] S S S S S S
 
 |-------------------------|---------------------------------|
 |-------------------------|---------------------------------|
 |-------------------------|---------------------------------|
 |-------5-----------7-----|--------9---------------12-------|
 |---7-------7---9-------9-|---10-------10----12----------12-|
 |-0---0---0---0---0---0---|-0----0---0----10----10----10----|

1.,2.
A5 A A5 N.C.
E S S S S E S S S S E S S S S E S S S S 3x
 
 |---------------------|----------------------||
 |---------------------|---------------------o||
 |---------6-6-6-6-6-6-|----------------------||
 |-7-7-7-7-7-7-7-7-7-7-|-7-7-7-7-7-7-7--------||
 |-7-7-7-7-7-7-7-7-7-7-|-7-7-7-7-7-7-7-------o||
 |-5-5-5-5-5-5-5-5-5-5-|-5-5-5-5-5-5-5-0-3-2--||

3.
[A5]E S S S S E S S S S [A5B5/FA5B5A5#]S S S S E E S S S S
 
 |---------------------|---------------------|
 |---------------------|---------------------|
 |---------------------|---------------------|
 |-7-7-7-7-7-7-7-7-7-7-|-7S9-9-7-9-7-7-7-7-7-|
 |-7-7-7-7-7-7-7-7-7-7-|-7S9-9-7-9-7-7-7-7-7-|
 |-5-5-5-5-5-5-5-5-5-5-|-----------5-5-5-5-5-|

Chorus
$
[E5]Gtr II[D/F#] [G5] [D5/A]
E. S S S E. S S S E. S S S E S S S S
 
 |-------------------|--------------------|
 |-------------------|--------------------|
 |-------------------|----------7-7-7-7-7-|
 |-2--2-2-2-4--4-4-4-|-5--5-5-5-7-7-7-7-7-|
 |-2--2-2-2-5--5-5-5-|-5--5-5-5-5-5-5-5-5-|
 |-0--0-0-0-2--2-2-2-|-3--3-3-3-5-5-5-5-5-|

A5 N.C.
E S S S S E S S S S E S S S S E S S S S
 
 |---------------------|----------------------|
 |---------------------|----------------------|
 |---------------------|----------------------|
 |-7-7-7-7-7-7-7-7-7-7-|-7-7-7-7-7-7-7-7------|
 |-7-7-7-7-7-7-7-7-7-7-|-7-7-7-7-7-7-7-7------|
 |-5-5-5-5-5-5-5-5-5-5-|-5-5-5-5-5-5-5-5-3-2--|

[E5]E. S S S [D/F#]E. S S S [G5]E. S S S [D5/A]E S S S S
 
 |-------------------|--------------------|
 |-------------------|--------------------|
 |-------------------|----------7-7-7-7-7-|
 |-2--2-2-2-4--4-4-4-|-5--5-5-5-7-7-7-7-7-|
 |-2--2-2-2-5--5-5-5-|-5--5-5-5-5-5-5-5-5-|
 |-0--0-0-0-2--2-2-2-|-3--3-3-3-5-5-5-5-5-|

To Coda
[A5]E S S S S E S S S S S [G5]E E S E S S S S
 
 |---------------------|-------------------|
 |---------------------|-------------------|
 |---------------------|-------------------|
 |-7-7-7-7-7-7-7-7-7-7-|-x-5-5-5-5-5-5-5-5-|
 |-7-7-7-7-7-7-7-7-7-7-|-x-5-5-5-5-5-5-5-5-|
 |-5-5-5-5-5-5-5-5-5-5-|-x-3-3-3-3-3-3-3-3-|

Verse
[(Em)]Gtr I[(F#m/E#)] [(G/E)] [(D5)]
S S S S S S S S S S S S S S S S S S S S S S S S
 
 |-------------------------|---------------------------------|
 |-------------------------|---------------------------------|
 |-------------------------|---------------------------------|
 |-------5-----------7-----|--------9---------------12-------|
 |---7-------7---9-------9-|---10-------10----12----------12-|
 |-0---0---0---0---0---0---|-0----0---0----10----10----10----|

[A5]E S S S [A]S E S S S S [A5]E S S S S E S S S S
 
 |---------------------|---------------------|
 |---------------------|---------------------|
 |---------6-6-6-6-6-6-|---------------------|
 |-7-7-7-7-7-7-7-7-7-7-|-7-7-7-7-7-7-7-7-7-7-|
 |-7-7-7-7-7-7-7-7-7-7-|-7-7-7-7-7-7-7-7-7-7-|
 |-5-5-5-5-5-5-5-5-5-5-|-5-5-5-5-5-5-5-5-5-5-|

[(Em)]S S S S S S [(F#m/E#)]S S S S S S [(G/E)]S S S S S S [(D5)] S S S S S S
 
 |-------------------------|---------------------------------|
 |-------------------------|---------------------------------|
 |-------------------------|---------------------------------|
 |-------5-----------7-----|--------9---------------12-------|
 |---7-------7---9-------9-|---10-------10----12----------12-|
 |-0---0---0---0---0---0---|-0----0---0----10----10----10----|

A5 A A5 N.C.
E S S S S E S S S S E S S S S E S S S S
 
 |---------------------|---------------------|
 |---------------------|---------------------|
 |---------6-6-6-6-6-6-|---------------------|
 |-7-7-7-7-7-7-7-7-7-7-|-7-7-7-7-7-7-7-------|
 |-7-7-7-7-7-7-7-7-7-7-|-7-7-7-7-7-7-7-------|
 |-5-5-5-5-5-5-5-5-5-5-|-5-5-5-5-5-5-5-0-3-2-|

[(Em)]S S S S S S [(F#m/E#)]S S S S S S [(G/E)]S S S S S S [(D5)] S S S S S S
 
 |-------------------------|---------------------------------|
 |-------------------------|---------------------------------|
 |-------------------------|---------------------------------|
 |-------5-----------7-----|--------9---------------12-------|
 |---7-------7---9-------9-|---10-------10----12----------12-|
 |-0---0---0---0---0---0---|-0----0---0----10----10----10----|

D.S. al Coda
[A5]E S S S S E S S S S [A5B5/FA5B5A5#]S S S S E E S S S S
 
 |---------------------|---------------------|
 |---------------------|---------------------|
 |---------------------|---------------------|
 |-7-7-7-7-7-7-7-7-7-7-|-7S9-9-7-9-7-7-7-7-7-|
 |-7-7-7-7-7-7-7-7-7-7-|-7S9-9-7-9-7-7-7-7-7-|
 |-5-5-5-5-5-5-5-5-5-5-|-----------5-5-5-5-5-|

&
[E5]Gtr II[D/F#] [G5] [D5/A]
E. S S S E. S S S E. S S S E S S S S
 
 |-------------------|--------------------|
 |-------------------|--------------------|
 |-------------------|----------7-7-7-7-7-|
 |-2--2-2-2-4--4-4-4-|-5--5-5-5-7-7-7-7-7-|
 |-2--2-2-2-5--5-5-5-|-5--5-5-5-5-5-5-5-5-|
 |-0--0-0-0-2--2-2-2-|-3--3-3-3-5-5-5-5-5-|

A5 N.C.
E S S S S E S S S S E S S S S E S S S S
 
 |---------------------|----------------------|
 |---------------------|----------------------|
 |---------------------|----------------------|
 |-7-7-7-7-7-7-7-7-7-7-|-7-7-7-7-7-7-7-7------|
 |-7-7-7-7-7-7-7-7-7-7-|-7-7-7-7-7-7-7-7------|
 |-5-5-5-5-5-5-5-5-5-5-|-5-5-5-5-5-5-5-5-3-2--|

[E5]E. S S S [D/F#]E. S S S [G5]E. S S S [D5/A]E S S S S [A5]E S S S S E S S S S H.
 
 |-------------------|--------------------|---------------------|-------|
 |-------------------|--------------------|---------------------|-------|
 |-------------------|----------7-7-7-7-7-|---------------------|-------|
 |-2--2-2-2-4--4-4-4-|-5--5-5-5-7-7-7-7-7-|-7-7-7-7-7-7-7-7-7-7-|-7-----|
 |-2--2-2-2-5--5-5-5-|-5--5-5-5-5-5-5-5-5-|-7-7-7-7-7-7-7-7-7-7-|-7-----|
 |-0--0-0-0-2--2-2-2-|-3--3-3-3-5-5-5-5-5-|-5-5-5-5-5-5-5-5-5-5-|-5-----|

Interlude
[Em]Gtr I[F#m] [G] [(D5)]
E S S S S S S S S S S S S S S S S S S S S S S
 
 ||------------------------|---------------------------------|
 ||o-----------------------|---------------------------------|
 ||------------------------|---------------------------------|
 ||--5---5-----5s7---7-----|-7S=9---9---------------12-------|
 ||o-7-------7-7s9-------9-|-9S10-------10----12----------12-|
 ||--0-0---0---0---0---0---|-0----0---0----10----10----10----|

[A5]E S S S S E S S S S E S S S S E S S S S 3x
 
 |---------------------|----------------------||
 |---------------------|---------------------o||
 |---------------------|----------------------||
 |-7-7-7-7-7-7-7-7-7-7-|-7-7-7-7-7-7-7-7-7-7--||
 |-7-7-7-7-7-7-7-7-7-7-|-7-7-7-7-7-7-7-7-7-7-o||
 |-5-5-5-5-5-5-5-5-5-5-|-5-5-5-5-5-5-5-5-5-5--||

[Em]E S S S S S [F#m]S S S S S S [G] S S S S S [(D5)] S S S S S S
 
 |-----------------------|---------------------------------|
 |-----------------------|---------------------------------|
 |-----------------------|---------------------------------|
 |-5---5-----5s7---7-----|-7S=9---9---------------12-------|
 |-7-------7-7s9-------9-|-9S10-------10----12----------12-|
 |-0-0---0---0---0---0---|-0----0---0----10----10----10----|

A5 N.C.
Gtr II
H. +H +E S S
 
 |---------|--------------------|
 |---------|--------------------|
 |---------|--------------------|
 |-7-------|-(7)----(7)---------|
 |-7-------|-(7)----(7)---------|
 |-5-------|-(5)----(5)---|

Out-Chorus
[E5]E. S S S [D/F#]E. S S S [G5]E. S S S [D5/A]E S S S S
 
 |-------------------|--------------------|
 |-------------------|--------------------|
 |-------------------|----------7-7-7-7-7-|
 |-2--2-2-2-4--4-4-4-|-5--5-5-5-7-7-7-7-7-|
 |-2--2-2-2-5--5-5-5-|-5--5-5-5-5-5-5-5-5-|
 |-0--0-0-0-2--2-2-2-|-3--3-3-3-5-5-5-5-5-|

A5 N.C.
E S S S S E S S S S E S S S S E S S S S
 
 |---------------------|----------------------|
 |---------------------|----------------------|
 |---------------------|----------------------|
 |-7-7-7-7-7-7-7-7-7-7-|-7-7-7-7-7-7-7-7------|
 |-7-7-7-7-7-7-7-7-7-7-|-7-7-7-7-7-7-7-7------|
 |-5-5-5-5-5-5-5-5-5-5-|-5-5-5-5-5-5-5-5-3-2--|

[E5]E. S S S [D/F#]E. S S S [G5]E. S S S [D5/A]E S S S S
 
 |-------------------|--------------------|
 |-------------------|--------------------|
 |-------------------|----------7-7-7-7-7-|
 |-2--2-2-2-4--4-4-4-|-5--5-5-5-7-7-7-7-7-|
 |-2--2-2-2-5--5-5-5-|-5--5-5-5-5-5-5-5-5-|
 |-0--0-0-0-2--2-2-2-|-3--3-3-3-5-5-5-5-5-|

[A5]E S S S S E S S S S S [G5]E E S E S S S S
 
 |---------------------|-------------------|
 |---------------------|-------------------|
 |---------------------|-------------------|
 |-7-7-7-7-7-7-7-7-7-7-|-x-5-5-5-5-5-5-5-5-|
 |-7-7-7-7-7-7-7-7-7-7-|-x-5-5-5-5-5-5-5-5-|
 |-5-5-5-5-5-5-5-5-5-5-|-x-3-3-3-3-3-3-3-3-|

[E5]E. S S S [D/F#]E. S S S [G5]E. S S S [D5/A]E S S S S
 
 |-------------------|--------------------|
 |-------------------|--------------------|
 |-------------------|----------7-7-7-7-7-|
 |-2--2-2-2-4--4-4-4-|-5--5-5-5-7-7-7-7-7-|
 |-2--2-2-2-5--5-5-5-|-5--5-5-5-5-5-5-5-5-|
 |-0--0-0-0-2--2-2-2-|-3--3-3-3-5-5-5-5-5-|

A5 N.C.
E S S S S E S S S S E S S S S E S S S S
 
 |---------------------|----------------------|
 |---------------------|----------------------|
 |---------------------|----------------------|
 |-7-7-7-7-7-7-7-7-7-7-|-7-7-7-7-7-7-7-7------|
 |-7-7-7-7-7-7-7-7-7-7-|-7-7-7-7-7-7-7-7------|
 |-5-5-5-5-5-5-5-5-5-5-|-5-5-5-5-5-5-5-5-3-2--|

[E5]E. S S S [D/F#]E. S S S [G5]E. S S S [D5/A]E S S S S [A5]H. +H +E +E
 
 |-------------------|--------------------|---------|------------------*|
 |-------------------|--------------------|---------|------------------*|
 |-------------------|----------7-7-7-7-7-|---------|------------------*|
 |-2--2-2-2-4--4-4-4-|-5--5-5-5-7-7-7-7-7-|-7-------|-(7)----(7)-(7)\--*|
 |-2--2-2-2-5--5-5-5-|-5--5-5-5-5-5-5-5-5-|-7-------|-(7)----(7)-(7)\--*|
 |-0--0-0-0-2--2-2-2-|-3--3-3-3-5-5-5-5-5-|-5-------|-(5)----(5)-(5)\--*|

** Generated using Power Tab Editor by Brad Larsen: The Official Power Tab Web Site

Important: The song above is NOT stored on the Chordie server. The original song is hosted at www.guitaretab.com. Chordie works as a search engine and provides on-the-fly formatting. Chordie does not index songs against artists'/composers' will. To remove this song please click here.

Text color:
Chord color:
Chord grids: 
Font size:    
Page size: 

A A5 D/F# D5/A E5 Em F#m G G5
Rate #0 of 2 versions

Login - add to songbook

SHARE PAGE  



You need to log in to post comments