Guitar Tabs, Chords and Lyrics
Server problems seems to be fixed. Chordie has been experiencing problems with songs disappearing. These issues now seems to be fixed, but still verifying the fix. If you find anything strange, please email admin@chordie.com.


Velvet Touch  The 69 Eyes

VELVET TOUCH
As recorded by The 69 Eyes
(From the 2000 Album BLESSED BE)
Words by Jyrki
Music by Bazie
Transcribed by vitaha_z
Gtr I (Db Ab Db Gb Bb Eb) - 'Piano'
Gtr II (Db Ab Db Gb Bb Eb) - 'Clean'
Gtr III (Db Ab Db Gb Bb Eb) - 'Dist'
Gtr IV (Db Ab Db Gb Bb Eb) - 'Keyb'
Intro
Q=136
N.C.
[4/4] Gtr I
W W W H E E E E
 
 |----------|------------|------------|----------------|
 |----------|------------|------------|----------------|
 |----------|------------|------------|----------------|
 |----------|------------|------------|--------5-7-8-7-|
 |----------|------------|------------|----------------|
 |----------|------------|------------|----------------|

|
| Gtr IV
| W +W +W +W
 
 |----------|------------|------------|----------------|
 |----------|------------|------------|----------------|
 |----------|------------|------------|----------------|
 |-0--------|-(0)--------|-(0)--------|-(0)------------|
 |----------|------------|------------|----------------|
 |----------|------------|------------|----------------|

W +W +W +H E E E E
 
 ||-------------|------------|------------|------------------||
 ||o------------|------------|------------|-----------------o||
 ||-------------|------------|------------|------------------||
 ||-------------|------------|------------|--------5-7-8-7---||
 ||o------------|------------|------------|-----------------o||
 ||---0---------|-(0)--------|-(0)--------|-(0)--------------||

|
| +W +W +W +W
 
 ||-------------|------------|------------|------------------||
 ||o------------|------------|------------|-----------------o||
 ||-------------|------------|------------|------------------||
 ||--(0)--------|-(0)--------|-(0)--------|-(0)--------------||
 ||o------------|------------|------------|-----------------o||
 ||-------------|------------|------------|------------------||

Gtr II
Q H Q W Q H Q W
 
 ||---------------|------------|--------------|------------------||
 ||o--------------|------------|--------------|-----------------o||
 ||-------2-------|--3---------|------2-------|--3---------------||
 ||---0--------0--|------------|--0--------0--|------------------||
 ||o--------------|------------|--------------|-----------------o||
 ||---------------|------------|--------------|------------------||

|
| Gtr I
| W +W +W +H E E E E
 
 ||---------------|------------|--------------|------------------||
 ||o--------------|------------|--------------|-----------------o||
 ||---------------|------------|--------------|------------------||
 ||---------------|------------|--------------|--------5-7-8-7---||
 ||o--------------|------------|--------------|-----------------o||
 ||---0-----------|-(0)--------|-(0)----------|-(0)--------------||

|
| Gtr IV
| +W +W +W +W
 
 ||---------------|------------|--------------|------------------||
 ||o--------------|------------|--------------|-----------------o||
 ||---------------|------------|--------------|------------------||
 ||--(0)----------|-(0)--------|-(0)----------|-(0)--------------||
 ||o--------------|------------|--------------|-----------------o||
 ||---------------|------------|--------------|------------------||

Verse
N.C.
Q H Q W Q H Q W
 
 |--------------|------------|--------------|----------------|
 |--------------|------------|--------------|----------------|
 |------2-------|--3---------|------2-------|--3-------------|
 |--0--------0--|------------|--0--------0--|----------------|
 |--------------|------------|--------------|----------------|
 |--------------|------------|--------------|----------------|

|
| W +W +W +H E E E E
 
 |--------------|------------|--------------|----------------|
 |--------------|------------|--------------|----------------|
 |--------------|------------|--------------|----------------|
 |--------------|------------|--------------|--------5-7-8-7-|
 |--------------|------------|--------------|----------------|
 |--0-----------|-(0)--------|-(0)----------|-(0)------------|

|
| +W +W +W +W
 
 |--------------|------------|--------------|----------------|
 |--------------|------------|--------------|----------------|
 |--------------|------------|--------------|----------------|
 |-(0)----------|-(0)--------|-(0)----------|-(0)------------|
 |--------------|------------|--------------|----------------|
 |--------------|------------|--------------|----------------|

Q H Q W Q H Q W
 
 |--------------|------------|----------------|----------------|
 |--------------|------------|----------------|----------------|
 |------2-------|--3---------|------2---------|----------------|
 |--0--------0--|------------|--2--------(2)--|--3-------------|
 |--------------|------------|----------------|----------------|
 |--------------|------------|----------------|----------------|

|
| W +W +W +H E E E E
 
 |--------------|------------|----------------|----------------|
 |--------------|------------|----------------|----------------|
 |--------------|------------|----------------|----------------|
 |--------------|------------|----------------|--------5-7-8-7-|
 |--------------|------------|----------------|----------------|
 |--0-----------|-(0)--------|-(0)------------|-(0)------------|

|
| +W +W W W
 
 |--------------|------------|----------------|----------------|
 |--------------|------------|----------------|----------------|
 |--------------|------------|----------------|----------------|
 |-(0)----------|-(0)--------|----------------|----------------|
 |--------------|------------|--0-------------|----------------|
 |--------------|------------|----------------|--3-------------|

Q H Q W Q H Q W
 
 |------------|------------------|--------------|----------------|
 |------------|------------------|--------------|----------------|
 |----2-------|--3---------------|------2-------|--3-------------|
 |-0-------0--|------------------|--0--------0--|----------------|
 |------------|------------------|--------------|----------------|
 |------------|------------------|--------------|----------------|

|
| W +Q Q. Q. W H E E E E
 
 |------------|------------------|--------------|----------------|
 |------------|-------1----------|--------------|----------------|
 |------------|-------------3----|--2-----------|----------------|
 |------------|------------------|--------------|--------5-7-8-7-|
 |-5----------|-(5)--(5)---(5)---|-(5)----------|----------------|
 |------------|------------------|--------------|----------------|

|
| W +W +W +W
 
 |------------|------------------|--------------|----------------|
 |------------|------------------|--------------|----------------|
 |------------|------------------|--------------|----------------|
 |-0----------|-(0)--------------|-(0)----------|-(0)------------|
 |------------|------------------|--------------|----------------|
 |------------|------------------|--------------|----------------|

A5/E N.C.
Q H Q W Q H Q W
 
 |--------------|------------------|--------------|------|
 |--------------|------------------|--------------|------|
 |------2-------|--3---------------|----2---------|------|
 |--0--------0--|------------------|-2-------(2)--|-3----|
 |--------------|------------------|--------------|------|
 |--------------|------------------|--------------|------|

|
| W +Q Q. Q. W W
 
 |--------------|------------------|--------------|------|
 |--------------|-------1----------|--------------|------|
 |--------------|-------------3----|-2------------|------|
 |--------------|------------------|-2------------|------|
 |--5-----------|-(5)--(5)---(5)---|--------------|------|
 |--------------|------------------|--------------|------|

|
| +W +W W W
 
 |--------------|------------------|--------------|------|
 |--------------|------------------|--------------|------|
 |--------------|------------------|--------------|------|
 |-(0)----------|-(0)--------------|--------------|------|
 |--------------|------------------|-0------------|------|
 |--------------|------------------|--------------|-3----|

[D5]Gtr III
W +W +W +H H
 
 |----------|------------|------------|-------------||
 |----------|------------|------------|-------------||
 |-2--------|-(2)--------|-(2)--------|-(2)---------||
 |-0--------|-(0)--------|-(0)--------|-(0)----x----||
 |-0--------|-(0)--------|-(0)--------|-(0)----x----||
 |-0--------|-(0)--------|-(0)--------|-(0)----x----||

Chorus Riff I
[D5]Q Q Q E E Q Q E Q. [Bb5]Q Q Q E [G5]E +Q Q E [F5]Q.
 
 ||-----------------|--------------|--------------|------------------||
 ||o----------------|--------------|--------------|-----------------o||
 ||-----------------|--------------|--------------|------------------||
 ||-----------------|--------------|-3--3--x------|------------------||
 ||o-0--0--x----(0)-|-0--0--x-0----|-1--1--x----5-|-(5)--5--x-3-----o||
 ||--0--0--x----(0)-|-0--0--x-0----|------------5-|-(5)--5--x-3------||

[D5]>
W +W
 
 |----------|----------------||
 |----------|----------------||
 |----------|----------------||
 |-0--------|-(0)------------||
 |-0--------|-(0)------------||
 |-0--------|-(0)------------||

|
| Gtr I
| W H E E E E
 
 |----------|----------------||
 |----------|----------------||
 |----------|----------------||
 |----------|--------5-7-8-7-||
 |----------|----------------||
 |----------|----------------||

Verse
N.C.
Gtr II
Q H Q W Q H Q W
 
 |------------|------------|--------------|----------------|
 |------------|------------|--------------|----------------|
 |----2-------|--3---------|------2-------|--3-------------|
 |-0-------0--|------------|--0--------0--|----------------|
 |------------|------------|--------------|----------------|
 |------------|------------|--------------|----------------|

|
| Gtr I
| W +W +W +H E E E E
 
 |------------|------------|--------------|----------------|
 |------------|------------|--------------|----------------|
 |------------|------------|--------------|----------------|
 |------------|------------|--------------|--------5-7-8-7-|
 |------------|------------|--------------|----------------|
 |-0----------|-(0)--------|-(0)----------|-(0)------------|

|
| Gtr IV
| W +W +W +W
 
 |------------|------------|--------------|----------------|
 |------------|------------|--------------|----------------|
 |------------|------------|--------------|----------------|
 |-0----------|-(0)--------|-(0)----------|-(0)------------|
 |------------|------------|--------------|----------------|
 |------------|------------|--------------|----------------|

Q H Q W Q H Q W
 
 |--------------|------------|----------------|----------------|
 |--------------|------------|----------------|----------------|
 |------2-------|--3---------|------2---------|----------------|
 |--0--------0--|------------|--2--------(2)--|--3-------------|
 |--------------|------------|----------------|----------------|
 |--------------|------------|----------------|----------------|

|
| W +W +W +H E E E E
 
 |--------------|------------|----------------|----------------|
 |--------------|------------|----------------|----------------|
 |--------------|------------|----------------|----------------|
 |--------------|------------|----------------|--------5-7-8-7-|
 |--------------|------------|----------------|----------------|
 |--0-----------|-(0)--------|-(0)------------|-(0)------------|

|
| +W +W W W
 
 |--------------|------------|----------------|----------------|
 |--------------|------------|----------------|----------------|
 |--------------|------------|----------------|----------------|
 |-(0)----------|-(0)--------|----------------|--3-------------|
 |--------------|------------|--0-------------|----------------|
 |--------------|------------|----------------|----------------|

Q H Q W Q H Q W
 
 |------------|------------|--------------|----------------|
 |------------|------------|--------------|----------------|
 |----2-------|--3---------|------2-------|--3-------------|
 |-0-------0--|------------|--0--------0--|----------------|
 |------------|------------|--------------|----------------|
 |------------|------------|--------------|----------------|

|
| W +W +W +H E E E E
 
 |------------|------------|--------------|----------------|
 |------------|------------|--------------|----------------|
 |------------|------------|--------------|----------------|
 |------------|------------|--------------|--------5-7-8-7-|
 |------------|------------|--------------|----------------|
 |-0----------|-(0)--------|-(0)----------|-(0)------------|

|
| W +W +W +W
 
 |------------|------------|--------------|----------------|
 |------------|------------|--------------|----------------|
 |------------|------------|--------------|----------------|
 |-0----------|-(0)--------|-(0)----------|-(0)------------|
 |------------|------------|--------------|----------------|
 |------------|------------|--------------|----------------|

Q H Q W [A5]W [F5] W
 
 |--------------|------------|----------|--------||
 |--------------|------------|----------|--------||
 |------2-------|--3---------|-2--------|-(2)----||
 |--0--------0--|------------|-2--------|--3-----||
 |--------------|------------|----------|--------||
 |--------------|------------|----------|--------||

|
| Gtr III
| W +W W W
 
 |--------------|------------|----------|--------||
 |--------------|------------|----------|--------||
 |--------------|------------|----------|--------||
 |--------------|------------|-2--------|--3-----||
 |--------------|------------|-0--------|--3-----||
 |--0-----------|-(0)--------|----------|--3-----||

|
| +W +W W W
 
 |--------------|------------|----------|--------||
 |--------------|------------|----------|--------||
 |--------------|------------|----------|--------||
 |-(0)----------|-(0)--------|----------|--------||
 |--------------|------------|-0--------|--------||
 |--------------|------------|----------|--3-----||

Chorus Riff I
[D5]Gtr III[Bb5] [G5] [F5]
Q Q Q E E Q Q E Q. Q Q Q E E +Q Q E Q.
 
 ||-----------------|--------------|--------------|------------------||
 ||o----------------|--------------|--------------|-----------------o||
 ||-----------------|--------------|--------------|------------------||
 ||-----------------|--------------|-3--3--x------|------------------||
 ||o-0--0--x----(0)-|-0--0--x-0----|-1--1--x----5-|-(5)--5--x-3-----o||
 ||--0--0--x----(0)-|-0--0--x-0----|------------5-|-(5)--5--x-3------||

Chorus Riff II
[D5]E E E Q E E E Q E E E E E E [Bb5]E E E Q E E [G5]E Q E E E [F5]Q.
 
 ||-----------------|----------------|----------------|-----------------||
 ||o----------------|----------------|----------------|----------------o||
 ||-----------------|----------------|----------------|-----------------||
 ||-----------------|----------------|-3-3-3----3-3---|-----------------||
 ||o-0-0-0----0-0-0-|----0-0---0-0---|-1-1-1----1-1-5-|----5-5-x-3-----o||
 ||--0-0-0----0-0-0-|----0-0---0-0---|--------------5-|----5-5-x-3------||

[D5] >
W +W +W +W
 
 |----------|------------|------------|----------------||
 |----------|------------|------------|----------------||
 |----------|------------|------------|----------------||
 |-7--------|-(7)--------|-(7)--------|-(7)------------||
 |-5--------|-(5)--------|-(5)--------|-(5)------------||
 |-0--------|-(0)--------|-(0)--------|-(0)------------||

|
| Gtr I
| W W W H E E E E
 
 |----------|------------|------------|----------------||
 |----------|------------|------------|----------------||
 |----------|------------|------------|----------------||
 |----------|------------|------------|--------5-7-8-7-||
 |----------|------------|------------|----------------||
 |----------|------------|------------|----------------||

|
| Gtr IV
| W +W +W +W
 
 |----------|------------|------------|----------------||
 |----------|------------|------------|----------------||
 |----------|------------|------------|----------------||
 |-0--------|-(0)--------|-(0)--------|-(0)------------||
 |----------|------------|------------|----------------||
 |----------|------------|------------|----------------||

Interlude
N.C.
Gtr II
[B] [B] [B] [B] [B] [B] [B] [B]  
 
 ||--------------|-------------|-------------|------------------||
 ||o-------------|-------------|-------------|-----------------o||
 ||--------------|-------------|-------------|------------------||
 ||---0-----0----|--0-----0----|--0-----0----|--0-----0---------||
 ||o-------------|-------------|-------------|-----------------o||
 ||--------------|-------------|-------------|------------------||

|
| W +W W H E E E E
 
 ||--------------|-------------|-------------|------------------||
 ||o-------------|-------------|-------------|-----------------o||
 ||--------------|-------------|-------------|------------------||
 ||--------------|-------------|-------------|--------5-7-8-7---||
 ||o-------------|-------------|-------------|-----------------o||
 ||---0----------|-(0)---------|--8----------|--5---------------||

|
| +W +W +W +W
 
 ||--------------|-------------|-------------|------------------||
 ||o-------------|-------------|-------------|-----------------o||
 ||--------------|-------------|-------------|------------------||
 ||--(0)---------|-(0)---------|-(0)---------|-(0)--------------||
 ||o-------------|-------------|-------------|-----------------o||
 ||--------------|-------------|-------------|------------------||

[B] [B] [B] [B] [B] [B] [B] [B]  
 
 |-------------|-------------|-------------|-------------|
 |-------------|-------------|-------------|-------------|
 |-------------|-------------|-------------|-------------|
 |--0-----0----|--0-----0----|--0-----0----|--0-----0----|
 |-------------|-------------|-------------|-------------|
 |-------------|-------------|-------------|-------------|

|
| W +W +W +W
 
 |-------------|-------------|-------------|-------------|
 |-------------|-------------|-------------|-------------|
 |-------------|-------------|-------------|-------------|
 |-------------|-------------|-------------|-------------|
 |-------------|-------------|-------------|-------------|
 |--0----------|-(0)---------|-(0)---------|-(0)---------|

|
| +W +W +W +W
 
 |-------------|-------------|-------------|-------------|
 |-------------|-------------|-------------|-------------|
 |-------------|-------------|-------------|-------------|
 |-(0)---------|-(0)---------|-(0)---------|-(0)---------|
 |-------------|-------------|-------------|-------------|
 |-------------|-------------|-------------|-------------|

[B] [B] [B] [B] [B] [B] [B] [B]  
 
 |-------------|-------------|---------------|----------------|
 |-------------|-------------|---------------|----------------|
 |-------------|-------------|---------------|----------------|
 |--0-----0----|--0-----0----|--0------0-----|--0-----0-------|
 |-------------|-------------|---------------|----------------|
 |-------------|-------------|---------------|----------------|

|
| +W +W +W +H E E E E
 
 |-------------|-------------|---------------|----------------|
 |-------------|-------------|---------------|----------------|
 |-------------|-------------|---------------|----------------|
 |-------------|-------------|---------------|--------5-7-8-7-|
 |-------------|-------------|---------------|----------------|
 |-(0)---------|-(0)---------|-(0)-----------|-(0)------------|

|
| +W +W +H H +W
 
 |-------------|-------------|---------------|----------------|
 |-------------|-------------|--------(6)----|-(6)------------|
 |-------------|-------------|---------------|----------------|
 |-(0)---------|-(0)---------|-(0)-----------|----------------|
 |-------------|-------------|---------------|----------------|
 |-------------|-------------|---------------|----------------|

[B] [B] [B] [B] [B] [B] [B] [B]  
 
 ||-------------|--------------|--------------|-------------------||
 ||o------------|--------------|--------------|------------------o||
 ||-------------|--------------|--------------|-------------------||
 ||---0----0----|---0-----0----|---0-----0----|---0-----0---------||
 ||o------------|--------------|--------------|------------------o||
 ||-------------|--------------|--------------|-------------------||

|
| W +W W H E E E E
 
 ||-------------|--------------|--------------|-------------------||
 ||o------------|--------------|--------------|------------------o||
 ||-------------|--------------|--------------|-------------------||
 ||-------------|--------------|--------------|---------5-7-8-7---||
 ||o------------|--------------|--------------|------------------o||
 ||---0---------|--(0)---------|---8----------|---5---------------||

|
| W +W +W +W
 
 ||--13---------|-(13)---------|-(13)---------|-(13)--------------||
 ||o-15---------|-(15)---------|-(15)---------|-(15)-------------o||
 ||-------------|--------------|--------------|-------------------||
 ||-------------|--------------|--------------|-------------------||
 ||o------------|--------------|--------------|------------------o||
 ||-------------|--------------|--------------|-------------------||

Chorus Riff II
[D5]Gtr III[Bb5] [G5] [F5]
E E E Q E E E Q E E E E E E E E E Q E E E Q E E E Q.
 
 ||-----------------|------------------|----------------|-------------------||
 ||o----------------|------------------|----------------|------------------o||
 ||-----------------|------------------|----------------|-------------------||
 ||-----------------|------------------|-3-3-3----3-3---|-------------------||
 ||o-0-0-0----0-0-0-|------0-0---0-0---|-1-1-1----1-1-5-|----5-5-x-3-------o||
 ||--0-0-0----0-0-0-|------0-0---0-0---|--------------5-|----5-5-x-3--------||

|
| W +W W H E E E E
 
 ||-----------------|------------------|----------------|-------------------||
 ||o----------------|------------------|----------------|------------------o||
 ||-----------------|------------------|----------------|-------------------||
 ||-----------------|------------------|----------------|--------5-7--8-7---||
 ||o----------------|------------------|----------------|------------------o||
 ||--0--------------|-(0)--------------|-8--------------|-5-----------------||

[D5]Gtr III[Bb5] [G5]
E E E Q E E E Q E E E E E E E E E Q E E E
 
 ||------------------|---------------------|-------------------|
 ||o-----------------|---------------------|-------------------|
 ||------------------|---------------------|-------------------|
 ||------------------|---------------------|---3--3-3----3-3---|
 ||o--0-0-0----0-0-0-|-------0--0---0--0---|---1--1-1----1-1-5-|
 ||---0-0-0----0-0-0-|-------0--0---0--0---|-----------------5-|

|
| W +Q Q. Q. W
 
 ||------------------|---------------------|-------------------|
 ||o-----------------|-------1-------------|-------------------|
 ||------------------|--------------3------|---2---------------|
 ||------------------|---------------------|-------------------|
 ||o-----------------|---------------------|-------------------|
 ||---0--------------|--(0)----------------|-------------------|

|
| Gtr IV
| W +W +W
 
 ||--13--------------|-(13)----------------|-(13)--------------|
 ||o-15--------------|-(15)----------------|-(15)--------------|
 ||------------------|---------------------|-------------------|
 ||------------------|---------------------|-------------------|
 ||o-----------------|---------------------|-------------------|
 ||------------------|---------------------|-------------------|

1. 2.
Q E E E [F5]Q. Q [G5]E E E [F5]Q.
 
 |---------------------||----------------------|
 |--------------------o||----------------------|
 |---------------------||----------------------|
 |---------------------||----------------------|
 |-------5-5-x-3------o||-------5-5-x-3--------|
 |-------5-5-x-3-------||-------5-5-x-3--------|

|
| H E E E E H E E E E
 
 |---------------------||----------------------|
 |--------------------o||----------------------|
 |---------------------||----------------------|
 |-----------5-7--8-7--||---5-------5-7--8-7---|
 |--------------------o||----------------------|
 |---5-----------------||----------------------|

|
| +W +W
 
 |-(13)----------------||-(13)-----------------|
 |-(15)---------------o||-(15)-----------------|
 |---------------------||----------------------|
 |---------------------||----------------------|
 |--------------------o||----------------------|
 |---------------------||----------------------|

[D5]E E E Q E E E Q E E E E E E [Bb5]E E E Q E E [G5]E Q E E E [F5]Q.
 
 |----------------|------------------|----------------|----------------|
 |----------------|------------------|----------------|----------------|
 |----------------|------------------|----------------|----------------|
 |----------------|------------------|-3-3-3----3-3---|----------------|
 |-0-0-0----0-0-0-|------0-0---0-0---|-1-1-1----1-1-5-|----5--5-x-3----|
 |-0-0-0----0-0-0-|------0-0---0-0---|--------------5-|----5--5-x-3----|

|
| W +W W Q Q. Q.
 
 |----------------|------------------|----------------|----------------|
 |----------------|------------------|----------------|----1-----------|
 |----------------|------------------|----------------|-----------3----|
 |----------------|------------------|----------------|----------------|
 |----------------|------------------|----------------|----------------|
 |-0--------------|-(0)--------------|-8--------------|-5--------------|

[D5]E E E Q E E E Q E E E E E E [Bb5]E E E Q E E [G5]E Q E E E [F5]Q.
 
 |----------------|------------------|----------------|----------------||
 |----------------|------------------|----------------|----------------||
 |----------------|------------------|----------------|----------------||
 |----------------|------------------|-3-3-3----3-3---|----------------||
 |-0-0-0----0-0-0-|------0-0---0-0---|-1-1-1----1-1-5-|----5--5-x-3----||
 |-0-0-0----0-0-0-|------0-0---0-0---|--------------5-|----5--5-x-3----||

|
| W +W W Q Q. Q.
 
 |----------------|------------------|----------------|----------------||
 |----------------|------------------|----------------|----1-----------||
 |-2--------------|-(2)--------------|----------------|-----------3----||
 |----------------|------------------|----------------|----------------||
 |----------------|------------------|----------------|----------------||
 |----------------|------------------|-8--------------|-5--------------||

Ending Theme
[Bb5] W [G5] W [Bb5] W [G5] W
 
 |-------------|-----------|-------------|---------|
 |-------------|-----------|-------------|---------|
 |-------------|-----------|-------------|---------|
 |---8---------|--5--------|---8---------|---5-----|
 |---8---------|--5--------|---8---------|---5-----|
 |---8---------|--5--------|---8---------|---5-----|

|
| Gtr IV
| W W +W +W
 
 |-(17)--------|-17--------|-(17)--------|-(17)----|
 |-(18)--------|-18--------|-(18)--------|-(18)----|
 |-------------|-----------|-------------|---------|
 |-------------|-----------|-------------|---------|
 |-------------|-----------|-------------|---------|
 |-------------|-----------|-------------|---------|

[Bb5] [G5] [D5]>
W W W +W
 
 |-------------|----------|----------|----------------||
 |-------------|----------|----------|----------------||
 |-------------|----------|----------|----------------||
 |---8---------|-5--------|-0--------|-(0)------------||
 |---8---------|-5--------|-0--------|-(0)------------||
 |---8---------|-5--------|-0--------|-(0)------------||

|
| Gtr I
| +W W W H E E E E
 
 |-(17)--------|----------|----------|----------------||
 |-(18)--------|----------|----------|----------------||
 |-------------|----------|----------|----------------||
 |-------------|----------|----------|--------5-7-8-7-||
 |-------------|----------|----------|----------------||
 |-------------|----------|----------|----------------||

Outro
D5 N.C.
+W +W W W
 
 |------------|----------------|----------|--------------|
 |------------|----------------|----------|--------------|
 |------------|----------------|----------|--------------|
 |-(0)--------|-(0)------------|----------|--------------|
 |-(0)--------|-(0)------------|----------|--------------|
 |-(0)--------|-(0)------------|----------|--------------|

|
| W +H E E E E W H E E E E
 
 |------------|----------------|----------|--------------|
 |------------|----------------|----------|--------------|
 |------------|----------------|----------|--------------|
 |------------|--------5-7-8-7-|----------|------5-7-8-7-|
 |------------|----------------|----------|--------------|
 |--0---------|-(0)------------|-8--------|-5------------|

Gtr I
W +H E E E E W Q. E +H
 
 |----------|----------------|----------|---------------|
 |----------|----------------|----------|---------------|
 |----------|----------------|----------|---------------|
 |----------|--------5-7-8-7-|----------|------3-(3)----|
 |----------|----------------|----------|---------------|
 |-0--------|-(0)------------|-8--------|-5-------------|

D5 N.C.
W +H E E E E W W W
 
 |----------|----------------|----------|----------|------*|
 |----------|----------------|----------|----------|------*|
 |-2--------|-(2)------------|----------|----------|------*|
 |-0--------|-(0)----5-7-8-7-|----------|----------|------*|
 |----------|----------------|----------|----------|------*|
 |----------|----------------|-8--------|-5--------|-0----*|

Duration Legend
 
 ---------------
 W - whole; H - half; Q - quarter; E - 8th; S - 16th; T - 32nd; X - 64th; a - acciaccatura

+ - note tied to previous; . - note dotted; .. - note double dotted
Uncapitalized letters represent notes that are staccato (1/2 duration)
Irregular groupings are notated above the duration line
Duration letters will always appear directly above the note/fret number it represents the
duration for. Duration letters with no fret number below them represent rests. Multi-
bar rests are notated in the form Wxn, where n is the number of bars to rest for. Low
melody durations appear below the staff
Tablature Legend
 
 ----------------

h - hammer-on
p - pull-off
b - bend
pb - pre-bend
r - bend release (if no number after the r, then release immediately)
/\ - slide into or out of (from/to "nowhere")
s - legato slide
S - shift slide
- natural harmonic
(n) - artificial harmonic
n(n) - tapped harmonic
~ - vibrato
tr - trill
T - tap
TP - trem. picking
PM - palm muting
\n/ - tremolo bar dip; n = amount to dip
\n - tremolo bar down
n/ - tremolo bar up
/n\ - tremolo bar inverted dip
= - hold bend; also acts as connecting device for hammers/pulls
- volume swell (louder/softer)
x - on rhythm slash represents muted slash
o - on rhythm slash represents single note slash
Misc Legend
 
 -----------

| - bar
|| - double bar
||o - repeat start
o|| - repeat end
*| - double bar (ending)
: - bar (freetime)
$ - Segno
& - Coda
Tempo markers - = BPM(8/16=s8/s16), where s8 = swing 8ths, s16 = swing 16ths

Important: The song above is NOT stored on the Chordie server. The original song is hosted at www.guitaretab.com. Chordie works as a search engine and provides on-the-fly formatting. Chordie does not index songs against artists'/composers' will. To remove this song please click here.

Text color:
Chord color:
Chord grids: 
Font size:    
Page size: 

A5 B Bb5 D5 F5 G5
Rate #1 of 1 versions

Jango Player

Login - add to songbook

SHARE PAGE  




You need to log in to post comments