Guitar Tabs, Chords and Lyrics
Server problems seems to be fixed. Chordie has been experiencing problems with songs disappearing. These issues now seems to be fixed, but still verifying the fix. If you find anything strange, please email admin@chordie.com.


Waiting for Tomorrow  77 Bombay Street

tabbed by igmeiner@gmx.net
[d] [D] [udu]  
Verse 1:
[G] [Em] 3 Minutes left and here I'm st[C]anding.
In my [G]mind I'm reaching out for helping h[D]ands.
[Em] I feel so lonely I am b[C]roken
As I'm w[G]aiting for my life to fade aw[D]ay.
Prechorus:
[Dm] Hours are days and weeks are [Am]years now.
And in this p[C]lace it seems that time's standing st[G]ill.
Chorus:
And [Dm]I'm still [Am]waiting for tom[C]orrow, tom[G]orrow.
[Dm] Why does tom[Am]orrow never [G]come?
And [Dm]I'm still [Am]waiting for tom[C]orrow, tom[G]orrow.
[Dm]Why does tom[Am]orrow never [G]come?
Verse 2
[Em] Prison bars are all ar[C]ound me.
There're so m[G]any things I'd love to make und[D]one.[(Eb)]
[Em] I have forgotten what it f[C]eels like to be fr[G]ee, to choose the way I
wanna l[D]ive
Prechorus:
[Dm]Hours are days and weeks are [Am]years now.
And in this [C]place it seems that time's standing s[G]till.
Chorus:
And [Dm]I'm still [Am]waiting for tom[C]orrow, tom[G]orrow.
[Dm] Why does tom[Am]orrow never [G]come?
And [Dm]I'm still [Am]waiting for tom[C]orrow, tom[G]orrow.
[Dm]Why does tom[Am]orrow never [G]come?
Guitarsolo clean
uuuhh
 
 e--------------|------------|------------|--------------|--------|
 b--------------|------------|------------|--------------|--------|
 g--------10----|-------9----|-------9----|--------------|--------|
 D----s12----12-|---s10---10-|---s10---10-|s12----10-9---|-7------|
 A--------------|------------|------------|--------------|--------|
 E--------------|------------|------------|--------------|--------|

play 2 x
 
 e--------------|------------|------------|--------------|
 b--------------|------------|------------|--------------|
 g--------10----|-------9----|------------|--------------|
 Ds7--s12----12-|---s10---10-|s12---------|--------------|
 A--------------|------------|------------|--------------|
 E--------------|------------|------------|--------------|

Verse 3
[Em] A fallen tree, a carrying s[C]unshine.
Winds of [G]hope are taking me so far aw[D]ay.[(Eb)]
[Em] But now I'm here I'm in that pr[C]ison as I'm w[G]aiting for this never
coming d[D]ay.
Prechorus:
[Dm] Hours are days and weeks are [Am]years now.
And in this p[C]lace it seems that time's standing st[G]ill.
Chorus:
And [Dm]I'm still [Am]waiting for tom[C]orrow, tom[G]orrow.
[Dm] Why does tom[Am]orrow never c[G]ome?
And [Dm]I'm still [Am]waiting for tom[C]orrow, tom[G]orrow.
[Dm]Why does tom[Am]orrow never [G]come?
And [Dm]I'm still [Am]waiting for tom[C]orrow, tom[G]orrow.
[Dm] Why does tom[Am]orrow never c[G]ome?
And [Dm]I'm still [Am]waiting for tom[C]orrow, tom[G]orrow.
[Dm]Why does tom[Am]orrow never [G]come?
never c[Dm]ome?

Important: The song above is NOT stored on the Chordie server. The original song is hosted at www.guitaretab.com. Chordie works as a search engine and provides on-the-fly formatting. Chordie does not index songs against artists'/composers' will. To remove this song please click here.

Text color:
Chord color:
Chord grids: 
Font size:    
Page size: 

Am C D Dm Em G
Rate #2 of 5 versions

Login - add to songbook

SHARE PAGE  



You need to log in to post comments