Guitar Tabs, Chords and Lyrics
Server problems seems to be fixed. Chordie has been experiencing problems with songs disappearing. These issues now seems to be fixed, but still verifying the fix. If you find anything strange, please email admin@chordie.com.


Don't Go Away  Oasis

DON'T GO AWAY
As recorded by OASIS
(From the 1997 Album BE HERE NOW)
Transcribed by Jon Symons
Music by Noel Gallagher
[Am]x 0 2 2 1 0
[Am7]x 0 2 2 1 3
[Gsus4]3 x 0 0 1 3
[Fadd2]x x 3 2 1 3
[Dm]x x 0 2 3 1
[D7sus4]x x 0 2 1 3
[C]x 3 2 0 1 0
[Cadd2]x 3 0 0 1 0
Am7(type 2)
x 0 2 0 1 0
[Am7/G]3 x 2 0 1 0
[Fmaj7]x x 3 2 1 0
[G]3 2 0 0 3 3
[Fm]x x 3 1 1 1
[Cadd2/B]x 2 0 0 1 0
[F]x x 3 2 1 1
[F/C]x 3 3 2 1 1
[Cmaj7]x 3 2 0 0 0
Gtr I (E A D G B E) - 'Acoustic1'
Gtr II (E A D G B E) - 'Lead Guitar'
Gtr III (E A D G B E) - 'Acoustic2'
Gtr IV (E A D G B E) - 'Acoustic3'
Intro
Q=80
[Am] [Am7] 
[4/4] Gtr I
W E S S E S S +S S S S E S S
| | | | | | | | | | | | |
[/] [/] [/] [/] [/] [/] [/] [/] [/] [/] [/] [/] [/] 
Gtr II
~~~~~~~~~~~~~~~~~~~~~~~~~~~~~~~
Q Q Q E S S S E. +H.
 
 |----------------||---------------------------------|
 |----------------||---------------------------------|
 |----------------||-5h7------(7)--------------------|
 |------------5h7-||---------------------------------|
 |----------------||---------------------------------|
 |----------------||---------------------------------|

[Gsus4] E S S E S S +S S S S E S S [Fadd2] E S S E S S +S S S S E S S
| | | | | | | | | | | | | | | | | | | | | | | | | |
[/] [/] [/] [/] [/] [/] [/] [/] [/] [/] [/] [/] [/] [/] [/] [/] [/] [/] [/] [/] [/] [/] [/] [/] [/] [/] 
~~~~~ ~~~~~~~~~~~~~~~~
+Q Q a +E E E E +E E +Q +Q. S S
 
 |----------------------------------------|-------------------------------------|
 |----------------------------------------|-------------------------------------|
 |-(7)-----7b9======7r(7)---5---7-5b5.5---|-(5)---------------------------------|
 |----------------------------------------|-----7---(7)-----(7)-----------|
 |----------------------------------------|-------------------------------------|
 |----------------------------------------|-------------------------------------|

[Dm]E S S E S S +S [Fadd2]S S S E S S [Am]E S S E S S +S [Am7]S S S E S S
| | | | | | | | | | | | | | | | | | | | | | | | | |
[/] [/] [/] [/] [/] [/] [/] [/] [/] [/] [/] [/] [/] [/] [/] [/] [/] [/] [/] [/] [/] [/] [/] [/] [/] [/] 
~~~~~~~~ ~~
E +E E E +Q. S S S E. +H +Q
 
 |---------------------------------|--------------------------------------|
 |---------------------------------|--------------------------------------|
 |---------------------------------|-5h7------(7)b9===============(7)-----|
 |-------------7---(7)---------5h7-|--------------------------------------|
 |-5b6r(5)---0---------------------|--------------------------------------|
 |---------------------------------|--------------------------------------|

[Gsus4] E S S E S S +S S S S E S S [Fadd2] E S S E S S +S S S S E S S
| | | | | | | | | | | | | | | | | | | | | | | | | |
[/] [/] [/] [/] [/] [/] [/] [/] [/] [/] [/] [/] [/] [/] [/] [/] [/] [/] [/] [/] [/] [/] [/] [/] [/] [/] 
~~~~~~~~~~~~~~~~
+Q Q a +E E E E +E E +Q +Q. S S
 
 |-----------------------------------------|---------------------------------------|
 |-----------------------------------------|---------------------------------------|
 |-(7)r-----7b9======7r(7)---5---7-5b5.5---|-(5)-----------------------------------|
 |-----------------------------------------|-----7---(7)-----(7)-------------|
 |-----------------------------------------|---------------------------------------|
 |-----------------------------------------|---------------------------------------|

Verse
[Dm]E S S E S S +S [Fadd2]S S S E S S [Am] E S S E S S +S [Am7]S S S E S S
| | | | | | | | | | | | | | | | | | | | | | | | | |
[/] [/] [/] [/] [/] [/] [/] [/] [/] [/] [/] [/] [/] [/] [/] [/] [/] [/] [/] [/] [/] [/] [/] [/] [/] [/] 
~~~~~~~~ ~~~~~~~~~~~~~~~~~~~~~~~~~~~~~~~~~~~~~~
E +E E E +Q E E +W
 
 |-------------------------------------||-------------------------------|
 |-------------------------------------||-------------------------------|
 |---------------------------5b5.5-----||-------------------------------|
 |-------------7---(7)-------------7---||-(7)---------------------------|
 |-5b6r(5)---0-------------------------||-------------------------------|
 |-------------------------------------||-------------------------------|

[Gsus4] E S S E S S +S S S S E S S [Fadd2] E S S E S S +S S S S E S S
| | | | | | | | | | | | | | | | | | | | | | | | | |
[/] [/] [/] [/] [/] [/] [/] [/] [/] [/] [/] [/] [/] [/] [/] [/] [/] [/] [/] [/] [/] [/] [/] [/] [/] [/] 
>
~~~~~
+W +H. Q
 
 |-------------------------------|--------------------------------|
 |-------------------------------|--------------------------------|
 |-------------------------------|--------------------------------|
 |-(7)---------------------------|-(7)----------------------------|
 |-------------------------------|--------------------------------|
 |-------------------------------|--------------------------------|

Gtr I
E S S E S S +S S S S E S S E S S E S S +S S S S E S S
 
 |-1--1--1--1--1--1--(1)-3-3--3--3--3--3--|-0--0--0--0--0--0--(0)-3-3--3--3--3--3--|
 |-3--3--3--3--3--3--(3)-1-1--1--1--1--1--|-1--1--1--1--1--1--(1)-1-1--1--1--1--1--|
 |-2--2--2--2--2--2--(2)-2-2--2--2--2--2--|-2--2--2--2--2--2--(2)-2-2--2--2--2--2--|
 |-0--0-(0)-0--0-(0)-(0)---3-(3)-3--3-(3)-|-2--2--2--2--2--2--(2)-2-2--2--2--2--2--|
 |----------------------------------------|-0--0-(0)-0--0-(0)-(0)---0-(0)-0--0-(0)-|
 |----------------------------------------|----------------------------------------|

E S S E S S +S S S S E S S
 
 |-3--3--3--3--3--3--(3)--3--3--3--3--3--3--|
 |-1--1--1--1--1--1--(1)--1--1--1--1--1--1--|
 |-0--0--0--0--0--0--(0)--0--0--0--0--0--0--|
 |-0--0--0--0--0--0--(0)--0--0--0--0--0--0--|
 |-x--x--x--x--x--x--(x)--x--x--x--x--x--x--|
 |-3--3-(3)-3--3-(3)-(3)-(3)-3-(3)-3--3-(3)-|

[Fadd2]Gtr I[Dm] [Fadd2]
E S S E S S S S S S E S S E S S E S S S S S S E S S
| | | | | | | | | | | | | | | | | | | | | | | | | |
[/] [/] [/] [/] [/] [/] [/] [/] [/] [/] [/] [/] [/] [/] [/] [/] [/] [/] [/] [/] [/] [/] [/] [/] [/] [/] 
Gtr III
W H E E E E
 
 |------------------------------|------------------------------||
 |------------------------------|-----------------------1--0---||
 |------------------------------|------------------------------||
 |------------------------------|-------------------0----------||
 |------------------------------|------------------------------||
 |------------------------------|------------------------------||

Bridge
[D7sus4] E S S E S S S S S S E S S [Fadd2]E S S E S S S S S S E S S
| | | | | | | | | | | | | | | | | | | | | | | | | |
[/] [/] [/] [/] [/] [/] [/] [/] [/] [/] [/] [/] [/] [/] [/] [/] [/] [/] [/] [/] [/] [/] [/] [/] [/] [/] 
+E E E E +E Q E +E E E E +E Q E
 
 |----------------3---(3)-------------|-------------------3---(3)-----------|
 |--(0)---1-----------------1-----0---|---(0)----1------------------1-----0-|
 |-------------0----------------------|---------------0---------------------|
 |------------------------------------|-------------------------------------|
 |------------------------------------|-------------------------------------|
 |------------------------------------|-------------------------------------|

[D7sus4] E S S E S S S S S S E S S
| | | | | | | | | | | | |
[/] [/] [/] [/] [/] [/] [/] [/] [/] [/] [/] [/] [/]  
+E E E E +E Q E
 
 |------------3---(3)-------------|
 |-(0)--1---------------1-----0---|
 |----------0---------------------|
 |--------------------------------|
 |--------------------------------|
 |--------------------------------|

Chorus
$
$$
E S S E S S S S S S E S S E S S E S S S S S S E S S
| | | | | | | | | | | | | | | | | | | | | | | | | |
/ / / / / / / / / / / / / / / / / / / / / / / / / /
+E E E E +E Q E +E E E E +E Q E
|------------3---(3)-------------||------------3---(3)-------------|
|-(0)--1---------------1-----0---||-(0)--1---------------1-----0---|
|----------0---------------------||----------0---------------------|
|--------------------------------||--------------------------------|
|--------------------------------||--------------------------------|
|--------------------------------||--------------------------------|
E S S E S S S S S S E S S
| | | | | | | | | | | | |
/ / / / / / / / / / / / /
+E E E E +E Q E
|------------3---(3)-------------|
|-(0)--1---------------1-----0---|
|----------0---------------------|
|--------------------------------|
|--------------------------------|
|--------------------------------|
Am7(type 2) Am7/G
E S S E S S S S S S E S S E S S E S S S S S S E S S
| | | | | | | | | | | | | | | | | | | | | | | | | |
/ / / / / / / / / / / / / / / / / / / / / / / / / /
+E E E E +E Q E +E E E E +E Q E
|------------3---(3)-------------|------------3---(3)-------------|
|-(0)--1---------------1-----0---|-(0)--1---------------1-----0---|
|----------0---------------------|----------0---------------------|
|--------------------------------|--------------------------------|
|--------------------------------|--------------------------------|
|--------------------------------|--------------------------------|
E S S E S S S S S S E S S
| | | | | | | | | | | | |
/ / / / / / / / / / / / /
+E E E E +E Q E
|------------3---(3)-------------|
|-(0)--1---------------1-----0---|
|----------0---------------------|
|--------------------------------|
|--------------------------------|
|--------------------------------|
To Coda
To Coda
E S S E S S S S S S E S S E S S E S S E E E E
| | | | | | | | | | | | | | | | | | | | | |
/ / / / / / / / / / / / / / / / / / / / / /
+E E E E +E Q E +E E E E +E Q E
|------------3---(3)-------------|------------3---(3)-------|
|-(0)--1---------------1-----0---|-(0)--1-------------1---0-|
|----------0---------------------|----------0---------------|
|--------------------------------|--------------------------|
|--------------------------------|--------------------------|
|--------------------------------|--------------------------|
+E S S E S S S S E E S S E S S E S S S S E E S S
| | | | | | | | | | | | | | | | | | | | | | | |
/ / / / / / / / / / / / / / / / / / / / / / / /
+E E E E +E Q E +E E E E +E Q E
|----------------3-----(3)-------------|-------------3---(3)-----------||
|-(0)----1--------------------1----0---|-(0)---1---------------1---0---||
|--------------0-----------------------|-----------0-------------------||
|--------------------------------------|-------------------------------||
|--------------------------------------|-------------------------------||
|--------------------------------------|-------------------------------||
|
| Gtr II
| Q +Q +Q +Q +Q Q E +E Q
|--------------------------------------|-------------------------------||
|--------------------------------------|-------------------------------||
|--7b9=====(7)-----(7)-------(7)-------|-(7)---------7r==(7)---5-------||
|--------------------------------------|-------------------------------||
|--------------------------------------|-------------------------------||
|--------------------------------------|-------------------------------||
Verse
Gtr I
E S S E S S +S S S S E S S E S S E S S +S S S S E S S
| | | | | | | | | | | | | | | | | | | | | | | | | |
/ / / / / / / / / / / / / / / / / / / / / / / / / /
Gtr II
~~~~~~~~~~~~~~~~~~~~~~~~~~~~~~~~~~
W +W
|-----------------------------|-------------------------------|
|-----------------------------|-------------------------------|
|-----------------------------|-------------------------------|
|-7---------------------------|-(7)---------------------------|
|-----------------------------|-------------------------------|
|-----------------------------|-------------------------------|
E S S E S S +S S S S E S S E S S E S S +S S S S E S S
| | | | | | | | | | | | | | | | | | | | | | | | | |
/ / / / / / / / / / / / / / / / / / / / / / / / / /
Gtr III
E E E E +E Q E +E E E E +H
|----------3---(3)-------------|------------3---(3)-------------|
|-0--1---------------1-----0---|-(0)--1-------------------------|
|--------0---------------------|----------0---------------------|
|------------------------------|--------------------------------|
|------------------------------|--------------------------------|
|------------------------------|--------------------------------|
E S S E S S S S S S E S S E S S E S S S S S S E S S
| | | | | | | | | | | | | | | | | | | | | | | | | |
/ / / / / / / / / / / / / / / / / / / / / / / / / /
W W
|----------------------------|----------------------------|
|----------------------------|----------------------------|
|----------------------------|----------------------------|
|----------------------------|----------------------------|
|----------------------------|----------------------------|
|----------------------------|----------------------------|
E S S E S S S S S S E S S E S S E S S S S S S E S S
| | | | | | | | | | | | | | | | | | | | | | | | | |
/ / / / / / / / / / / / / / / / / / / / / / / / / /
E E E E +E Q E +E E E E +E Q E
|----------3---(3)-------------|------------3---(3)-------------||
|-0--1---------------1-----0---|-(0)--1---------------1-----0---||
|--------0---------------------|----------0---------------------||
|------------------------------|--------------------------------||
|------------------------------|--------------------------------||
|------------------------------|--------------------------------||
Bridge
E S S E S S S S S S E S S E S S E S S S S S S E S S
| | | | | | | | | | | | | | | | | | | | | | | | | |
/ / / / / / / / / / / / / / / / / / / / / / / / / /
+E E E E +E Q E +E E E E +E Q E
|------------3---(3)-------------|------------3---(3)-------------|
|-(0)--1---------------1-----0---|-(0)--1---------------1-----0---|
|----------0---------------------|----------0---------------------|
|--------------------------------|--------------------------------|
|--------------------------------|--------------------------------|
|--------------------------------|--------------------------------|
D.S. al Coda
E S S E S S S S S S E S S E S S E S S S S S S E S S
| | | | | | | | | | | | | | | | | | | | | | | | | |
/ / / / / / / / / / / / / / / / / / / / / / / / / /
+E E E E +E Q E +E E E E +E Q E
|------------3---(3)-------------|------------3---(3)-------------||
|-(0)--1---------------1-----0---|-(0)--1---------------1-----0---||
|----------0---------------------|----------0---------------------||
|--------------------------------|--------------------------------||
|--------------------------------|--------------------------------||
|--------------------------------|--------------------------------||
Interlude
&
E S S E S S S S E E S S E S S E S S S S E E S S
| | | | | | | | | | | | | | | | | | | | | | | |
/ / / / / / / / / / / / / / / / / / / / / / / /
+E E E E +E Q E +E E E E +E Q.
|-----------3---(3)-----------||-----------3---(3)------------|
|-(0)-1---------------1---0---||-(0)-1---------------1--------|
|---------0-------------------||---------0--------------------|
|-----------------------------||------------------------------|
|-----------------------------||------------------------------|
|-----------------------------||------------------------------|
E S S E S S S S E E E
| | | | | | | | | | |
/ / / / / / / / / / /
tr II
E S S E S S S +S S S e E
|--------------------------------|
|--------------------------------|
|-------5--7p5-7b9r(7)-5---5--5--|
|---5h7------------------7-------|
|--------------------------------|
|--------------------------------|
+E S S E S S S S E E S S
| | | | | | | | | | | |
/ / / / / / / / / / / /
~~~~~~~~~~~~~~~~~~~~~~~~~~
+S H. +E.
|------------------------------|
|------------------------------|
|-(5)--------------------------|
|-----7--------------------(7)-|
|------------------------------|
|------------------------------|
E S S E S S S S E E S S E S S E S S S S E E S S
| | | | | | | | | | | | | | | | | | | | | | | |
/ / / / / / / / / / / / / / / / / / / / / / / /
~~~~~
+W W
|---------------------------|--------------------------|
|---------------------------|--------------------------|
|---------------------------|--------------------------|
|-(7)-----------------------|--------------------------|
|---------------------------|--------------------------|
|---------------------------|--------------------------|
E S S E S S E S S E E +E S S E S S E S S E E
| | | | | | | | | | | | | | | | | | | | | |
/ / / / / / / / / / / / / / / / / / / / / /
E S S E S S S +S S S e E +E Q E +E E a E E
|------------------------------|----------------------8---8h10-8-|
|------------------------------|-----/8-----10---(10)------------|
|-------5-7p5-7b9r(7)-5---5-/7-|-(7)-----------------------------|
|---5h7-----------------7------|---------------------------------|
|------------------------------|---------------------------------|
|------------------------------|---------------------------------|
D.S.S. al Dbl. Coda
+E S S E S S E S S E E E S S E S S E S S E E
| | | | | | | | | | | | | | | | | | | | | |
/ / / / / / / / / / / / / / / / / / / / / /
+E S S E. S S S S S S S S S E S S E. S S S E S S E
|-(8)------8----8------8-8-10p8------|-8------8----8------8---8h10-8-||
|-----8h10--------8h10----------8h10-|---8h10--------8h10------------||
|------------------------------------|-------------------------------||
|------------------------------------|-------------------------------||
|------------------------------------|-------------------------------||
|------------------------------------|-------------------------------||
Chorus
&&
E S S E S S E S S E S S E S S E S S S S S S E S S
| | | | | | | | | | | | | | | | | | | | | | | | |
/ / / / / / / / / / / / / / / / / / / / / / / / /
Gtr III
E E E E +E Q E +E E E E +E Q E
|-----------3---(3)-----------||-----------3---(3)-------------|
|-(0)-1-------------1-----0---||-(0)-1---------------1-----0---|
|---------0-------------------||---------0---------------------|
|-----------------------------||-------------------------------|
|-----------------------------||-------------------------------|
|-----------------------------||-------------------------------|
Cadd2 Am7(type 2)
E S S E S S S S S S E S S E S S E S S S S S S E S S
| | | | | | | | | | | | | | | | | | | | | | | | | |
/ / / / / / / / / / / / / / / / / / / / / / / / / /
+E E E E +E Q E +E E E E +E Q E
|-----------3---(3)-------------|-----------3---(3)-------------|
|-(0)-1---------------1-----0---|-(0)-1---------------1-----0---|
|---------0---------------------|---------0---------------------|
|-------------------------------|-------------------------------|
|-------------------------------|-------------------------------|
|-------------------------------|-------------------------------|
E S S E S S S S S S E S S
| | | | | | | | | | | | |
/ / / / / / / / / / / / /
+E E E E +E Q E
|-----------3---(3)-------------|
|-(0)-1---------------1-----0---|
|---------0---------------------|
|-------------------------------|
|-------------------------------|
|-------------------------------|
E S S E S S S S S S E S S E S S E S S S S S S E S S
| | | | | | | | | | | | | | | | | | | | | | | | | |
/ / / / / / / / / / / / / / / / / / / / / / / / / /
+E E E E +E Q E +E E E E +E Q E
|-----------3---(3)-------------|-----------3---(3)-------------|
|-(0)-1---------------1-----0---|-(0)-1---------------1-----0---|
|---------0---------------------|---------0---------------------|
|-------------------------------|-------------------------------|
|-------------------------------|-------------------------------|
|-------------------------------|-------------------------------|
E S S E S S E E E E +E S S E S S S S E E S S
| | | | | | | | | | | | | | | | | | | | |
/ / / / / / / / / / / / / / / / / / / / /
+E E E E +E Q E +E E E E +E Q E
|-----------3---(3)-------|-----------3---(3)-----------|
|-(0)-1-------------1---0-|-(0)-1---------------1---0---|
|---------0---------------|---------0-------------------|
|-------------------------|-----------------------------|
|-------------------------|-----------------------------|
|-------------------------|-----------------------------|
E S S E S S E E E E
| | | | | | | | |
/ / / / / / / / /
+E E E E +E Q E
|-----------3---(3)--------|
|-(0)-1-------------1---0--|
|---------0----------------|
|--------------------------|
|--------------------------|
|--------------------------|
+E S S E S S S S E E S S E S S E S S E E E E
| | | | | | | | | | | | | | | | | | | | |
/ / / / / / / / / / / / / / / / / / / / /
+E E E E +E Q E +E E E E +E Q E
|-----------3---(3)-----------|-----------3---(3)-------|
|-(0)-1---------------1---0---|-(0)-1-------------1---0-|
|---------0-------------------|---------0---------------|
|-----------------------------|-------------------------|
|-----------------------------|-------------------------|
|-----------------------------|-------------------------|
+E S S E S S S S E E S S
| | | | | | | | | | | |
/ / / / / / / / / / / /
+E E E E +E Q E
|-----------3---(3)------------|
|-(0)-1---------------1---0----|
|---------0--------------------|
|------------------------------|
|------------------------------|
|------------------------------|
Outro
E S S E S S S S E E S S E S S E S S S S E E S S
| | | | | | | | | | | | | | | | | | | | | | | |
/ / / / / / / / / / / / / / / / / / / / / / / /
+E E E E +E Q E E E E E +E E E E
|-----------3---(3)-----------||--------3-------------3-----|
|-(0)-1---------------1---0---||--0-1-----1---(1)---1---1---|
|---------0-------------------||----------------------------|
|-----------------------------||----------------------------|
|-----------------------------||----------------------------|
|-----------------------------||----------------------------|
|
| Gtr IV
| W W
|-----------------------------||-^3-------------------------|
|-----------------------------||-^1-------------------------|
|-----------------------------||-^0-------------------------|
|-----------------------------||-^x-------------------------|
|-----------------------------||-^3-------------------------|
|-----------------------------||----------------------------|
E S S E S S S S E E S S E S S E S S S S E E S S
| | | | | | | | | | | | | | | | | | | | | | | |
/ / / / / / / / / / / / / / / / / / / / / / / /
|-------3-------------3-----|-------3-------------3--------|
|-0-1-----1---(1)---1---1---|-0-1-----1---(1)---1---1------|
|---------------------------|------------------------------|
|---------------------------|------------------------------|
|---------------------------|------------------------------|
|---------------------------|------------------------------|
|
| W W
|---------------------------|------------------------------|
|---------------------------|------------------------------|
|---------------------------|------------------------------|
|---------------------------|------------------------------|
|-2-------------------------|-0----------------------------|
|---------------------------|------------------------------|
E S S E S S S S E E S S E S S E S S S S E E S S
| | | | | | | | | | | | | | | | | | | | | | | |
/ / / / / / / / / / / / / / / / / / / / / / / /
|-------3-------------3-----|-------3--------------3-----|
|-0-1-----1---(1)---1---1---|-0-1-----1----(1)---1---1---|
|---------------------------|----------------------------|
|---------------------------|----------------------------|
|---------------------------|----------------------------|
|---------------------------|----------------------------|
|
| H E Q E H Q. E
|---------------------------|----------------------------|
|---------------------------|----------------------------|
|---------------------------|----------------------------|
|-----------0-----0-----0---|-3---------3------------3---|
|---------------------------|----------------------------|
|-3-------------------------|----------------------------|
E S S E S S S S E E S S
| | | | | | | | | | | |
/ / / / / / / / / / / /
|-------3---------------3------|
|-0-1-----1---(1)-----1---1----|
|------------------------------|
|------------------------------|
|------------------------------|
|------------------------------|
|
| H S E. +E E
|------------------------------|
|------------------------------|
|------------------------------|
|-----------------------0------|
|-----------0h=2--(2)----------|
|-3----------------------------|
E S S E S S S S E E E
| | | | | | | | | | |
/ / / / / / / / / / /
||--------3-------------3---|
||o-0-1-----1---(1)---1---1-|
||--------------------------|
||--------------------------|
||o-------------------------|
||--------------------------|
|
| H Q. E
||--------------------------|
||o-------------------------|
||--------------------------|
||--------------------------|
||o-3------------2--------0-|
||--------------------------|
+E S S E S S S S E E S S E S S E S S S S E E E
| | | | | | | | | | | | | | | | | | | | | | |
/ / / / / / / / / / / / / / / / / / / / / / /
|---------3-------------3---------||-------3---------3------|
|--0--1-----1---(1)---1------1---o||-0-1-----0---1-----0-1--|
|---------------------------------||------------------------|
|---------------------------------||------------------------|
|--------------------------------o||------------------------|
|---------------------------------||------------------------|
|
| +H S E. S E. W
|---------------------------------||------------------------|
|--------------------------------o||------------------------|
|---------------------------------||------------------------|
|----------------0h2----0h2-------||------------------------|
|-(0)----------------------------o||------------------------|
|---------------------------------||-3----------------------|
+E S S E S S S S E E E W +W
| | | | | | | | | | | | |
/ / / / / / / / / / / / /
E E E E E E Q W +W
|------3-----3-----------|------------|--------*|
|--0-1---0-1---0---------|--0---------|-(0)----*|
|------------------------|------------|--------*|
|------------------------|------------|--------*|
|------------------------|------------|--------*|
|------------------------|------------|--------*|
|
| W W +W
|------------------------|-^0---------|-(0)----*|
|------------------------|-^0---------|-(0)----*|
|------------------------|-^0---------|-(0)----*|
|------------------------|-^2---------|-(2)----*|
|------------------------|-^3---------|-(3)----*|
|------------------------|------------|--------*|
Duration Legend
---------------
W - whole; H - half; Q - quarter; E - 8th; S - 16th; T - 32nd; X - 64th; a - acciaccatura
+ - note tied to previous; . - note dotted; .. - note double dotted
Uncapitalized letters represent notes that are staccato (1/2 duration)
Irregular groupings are notated above the duration line
Duration letters will always appear directly above the note/fret number it represents the
duration for. Duration letters with no fret number below them represent rests. Multi-
bar rests are notated in the form Wxn, where n is the number of bars to rest for. Low
melody durations appear below the staff
Tablature Legend
----------------
h - hammer-on
p - pull-off
b - bend
pb - pre-bend
r - bend release (if no number after the r, then release immediately)
/\ - slide into or out of (from/to "nowhere")
s - legato slide
S - shift slide
- natural harmonic
[n] - artificial harmonic
n(n) - tapped harmonic
~ - vibrato
tr - trill
T - tap
TP - trem. picking
PM - palm muting
\n/ - tremolo bar dip; n = amount to dip
\n - tremolo bar down
n/ - tremolo bar up
/n\ - tremolo bar inverted dip
= - hold bend; also acts as connecting device for hammers/pulls
- volume swell (louder/softer)
x - on rhythm slash represents muted slash
o - on rhythm slash represents single note slash
Misc Legend
-----------
| - bar
|| - double bar
||o - repeat start
o|| - repeat end
*| - double bar (ending)
: - bar (freetime)
$ - Segno
& - Coda
Tempo markers - = BPM(8/16=s8/s16), where s8 = swing 8ths, s16 = swing 16ths

Important: The song above is NOT stored on the Chordie server. The original song is hosted at www.guitaretab.com. Chordie works as a search engine and provides on-the-fly formatting. Chordie does not index songs against artists'/composers' will. To remove this song please click here.

Text color:
Chord color:
Chord grids: 
Font size:    
Page size: 

Am Am7 Am7/G C Cadd2 Cadd2/B Cmaj7 D7sus4 Dm F F/C Fadd2 Fm Fmaj7 G Gsus4
Rate #5 of 7 versions

Jango Player

Login - add to songbook

SHARE PAGE  




You need to log in to post comments