Guitar Tabs, Chords and Lyrics
Server problems seems to be fixed. Chordie has been experiencing problems with songs disappearing. These issues now seems to be fixed, but still verifying the fix. If you find anything strange, please email admin@chordie.com.


Slide Away  Oasis

From: Derrick Butler
To: guitartabs.cc
Tab subject: Slide Away by Oasis
>by Derrick Butler
Slide Away written by Noel Gallagher performed by Oasis. Song can be
found on the album "Definitely Maybe"(Sony Music Publishing) and on
the single "whatever"
Tab key:
b = bend (7b9 means bend string at the 7th fret to make the note the
9th fret would play without a bend)
r = release bend
h = hammer on
p = pull off
s = slide
Chords Used:
EADGBe
Am7 (x02013)
C (X32013)
D7 (XX0212) (NOTE: During chorus this variates to D7sus4(xx0213) and back again)
E (022100)
Fmaj7 (x33210)
F (x33211)
G (320003)
G7 (320001)
Intro: There are two guitars playing in the intro, guitar1 and guitar2.
Guitar1 plays the little solos and the main solo. Guitar2 plays
the chords after the intro.
*strum this slowly
and backwards
Guitar1| Guitar2 *
 
 e------|------------3-0-----3------------0--------3-0-----3------------0-----|
 B------|----------1-----1-0---0--------1----------1---1-0---0--------1-------|
 G-5h7--|--------0----------------0---0------------0------------0---0---------|
 D------|------2--------------------3------------2----------------3-----------|
 A------|----0---------------------------------0------------------------------|
 E------|---------------------------------------------------------------------|

[Am7] [G] [Fmaj7] [Am7] [G] [Fmaj7]  
 
 e------------------------------------------------------------------------------|
 B------------------------------------------------------------------------------|
 G-7b9----9r7-5--------------5--------------------------------------------------|
 D--------------7-------5h7----7--------7---------------------------------------|
 A-------------------5h7------------6b7----0------------------------------------|
 E------------------------------------------------------------------------------|

Verse 1:
 
 --------

[Am7]Slide away, and [G]give it all you've [Fmaj7]got
[Am7]My today, [G]fell in from the [Fmaj7]top
I [Am7]dream of you, and [G]all the things you [Fmaj7]say
[Am7] I wonder where you are now[G] [Fmaj7]
Verse 2
 
 -------

[Am7]Hold me down, [G]all the world's asl[Fmaj7]eep
I [Am7]need you now, you [G]knock me off my f[Fmaj7]eet
I [Am7]dream of you, and we [G]talk of growing [Fmaj7]old
[Am7] But you said please don't[G] [Fmaj7]
Pre-Chorus
 
 ----------

[G]Slide in [F]Baby
Tog[G]ether we'll f[F]ly
[G]I tried pr[F]aying
But I [G]Don't know what you're sayin to [G7]me
Chorus
 
 ------

Now that you're m[C]ine, we'll find a [G]way
Of chasing the [Fmaj7]sun
Let me be the [Am7]one, that shines with [G]you
In the m[D7]orning, we don't know what to [Fmaj7]do
Two of a k[C]ind, we'll find a [G]way
To do what we've [Fmaj7]done
Let me be the [Am7]one, that shines with [G]you
*D7
And we can slide away
*Play this fill over any D7 with a * beside it
 
 e-----------------|
 B-----------------|
 G-7b9-9r7-5-------|
 D-----------7-----|
 A-----------------|
 E-----------------|

*D7 Fmaj7
Slide away
*D7 Fmaj7
Slide away
Aw[G]aaaayy[E]yyyyy
Guitar solo
 
 -----------
 e--------------5---------------------------8-8h10p8----------------------------------|
 B----------------5---------------------8h10---------10-8-8h10------------------------|
 G-7b9------r7------7-5--5-5h7-5--------------------------------7b9-9r7-5-5-5h7-5-----|
 D-------------------------------5h7----------------------------------------------5h7-|
 A------------------------------------------------------------------------------------|
 E------------------------------------------------------------------------------------|
 e------------------------------------------------------------------------------------|
 B------------------------------------------------------------------------------------|
 G---------------19b21---21r19-17---------------17-19p17--19b21-19b21-21r19-17--------|
 D-----7--------------------------19-------17h19-------------------------------19-----|
 A-6b7---0----------------------------17h19-------------------------------------------|
 E------------------------------------------------------------------------------------|
 e------------------------------------------------------------------------------------|
 B------------------------------------------------------------------------------------|
 G------------------------------------------------------------------------------------|
 D-------17-17------------------------------------------------------------------------|
 A-17h19-------19-17-15---------------------------------------------------------------|
 E----------------------17-15h17------------------------------------------------------|

*Hold this note until second chord progression
then slide out
Verse 3:
 
 --------

[Am7]Slide away, and [G]give it all you've [Fmaj7]got
[Am7]My today, [G]fell in from the [Fmaj7]top
I [Am7]dream of you, and [G]all the things you [Fmaj7]say
[Am7] I wonder where you are now[G] [Fmaj7]
Pre-Chorus
 
 ----------

[G]Slide in [F]Baby
Tog[G]ether we'll f[F]ly
[G]I tried pr[F]aying
And I kn[G]ow just what you're sayin to [G7]me
Chorus
 
 ------

Now that you're m[C]ine, we'll find a [G]way
Of chasing the [Fmaj7]sun
*Am7 G
Let me be the one, that shines with you
* Here when he sings "one"
Start playing this
 
 e--------------------------|
 B--------------------------|
 G--------------------------|
 D-5h7--7-9--9-10--10-12-/--|
 A--------------------------|
 E--------------------------|

In the m[D7]orning, we don't know what to [Fmaj7]do
We're two of a k[C]ind, we'll find a [G]way
To do what we've [Fmaj7]done
Let me be the [Am7]one, that shines with [G]you
*D7 Fmaj7
And we can slide away
*D7 Fmaj7
Slide away
*D7 Fmaj7
Slide away
*D7 Fmaj7
Slide away
*D7 Fmaj7
Slide away
Repeat a few more times then Noel improvises with notes on the A minor
Pentatonic to fade. Liam sings "Slide Away" a few more times and then I
think Noel sings "Don't know, Don't know, all I know is you can take me
There" while Liam is still singing "Slide Away".
And that's it.
Questions,comments,corrections to derrickbutler707@hotmail.com
EXIST

Important: The song above is NOT stored on the Chordie server. The original song is hosted at www.guitaretab.com. Chordie works as a search engine and provides on-the-fly formatting. Chordie does not index songs against artists'/composers' will. To remove this song please click here.

Text color:
Chord color:
Chord grids: 
Font size:    
Page size: 

Am7 C D7 E F Fmaj7 G G7
Rate #2 of 20 versions

Jango Player

Login - add to songbook

SHARE PAGE  



You need to log in to post comments