Guitar Tabs, Chords and Lyrics
Major upgrade!! After one year development the new version of Chordie is now online! Please give feedback.


Born on a Different Cloud  Oasis

Born On A Different Cloud - OASIS
Chords:
Dm XX0231
Dm V XX0765
Asus2 X02200
Asus2 VI X07600
E7 020100
E7 V 076700
Am X02210
Asus4 X02230
G 320033
G6 320030
G4/6 320010
Fmaj7 X33210
F6/maj7 X03230
Intro: [Dm V] [Asus2 VI]
[Dm V] [Asus2 VI] 
[E7 VI] 
[Am]born on a different cloud [Asus4] [Am]
from the [G4/6]ones that have burst round town, [G6] [G4/6]
[Fmaj7]it's no suprise to me, [F6/maj7] [Fmaj7]
that you're [G4]classless, clever, and free [G6] [G4/6]
[Am]loaded just like a gun [Asus4] [Am]
you're the [G4/6]hero that's still unsung [G6] [G4/6]
[Fmaj7]living on borrowed time [F6/maj7] [Fmaj7]
you're my [E7]son and you're gonna shine
[Dm]talking to myself again
this time i think i'm [Asus2]getting through
it's [Dm] funny how you think
[Asus2] it's funny how, it's funny [E7]how when you do
[Am]born on a different cloud [Asus4] [Am]
from the [G4/6]ones that have burst round town [G6] [G4/6]
[Fmaj7] it's no suprise to me [F6/maj7] [Fmaj7]
that you're [G4/6]classless, clever, and free [G6] [G4/6]
Solo:
[G4]  
 
 -------------------|
 -------------------|
 --7b9r7b9----------|
 -------------------|
 -------------------|
 -------------------|

[Am] [Asus4] [Am] 
 
 -----8--10h12p8----|
 -10----------------|
 -------------------|
 -------------------|
 -------------------|
 -------------------|

[G4/6] [G6] [G4/6] 
 
 -----8--10h12p8----|
 -10----------------|
 -------------------|
 -------------------|
 -------------------|
 -------------------|

[Fmaj7] [F6/maj7] [Fmaj7] 
 
 --10sl5-------------|
 --------------------|
 --------------------|
 --------------------|
 --------------------|
 --------------------|

[E7] 
 
 --8-7---------------|
 --------------------|
 --------------------|
 --------------------|
 --------------------|
 --------------------|
 ------------------7-|
 --------------------|
 --7b9r7b9-----------|
 --------------------|
 --------------------|
 --------------------|

[G]lonely soul, busy working [Am]overtime
[G]nothing ever gets done, especially when your [Am]hands are tied
[G]lonely soul, breaking up your [Am]mothers pride
[G]nothing ever gets done, [E7]not until your war's won
[Am]we're born on a different cloud [Asus4] [Am]
your [G4/6]born on a different cloud [G6] [G4/6]
[Fmaj7]we're born on a different cloud [F6/maj7] [Fmaj7]
we're [G4/6]born on a different cloud [G6] [G4/6]
...
(repeat to fade)
Riff (outro):
 
 --12--------------|
 -----15-13-12-----|
 --------------14--|
 ------------------|
 ------------------|
 ------------------|


Important: The song above is NOT stored on the Chordie server. The original song is hosted at www.guitaretab.com. Chordie works as a search engine and provides on-the-fly formatting. Chordie does not index songs against artists'/composers' will. To remove this song please click here.

Text color:
Chord color:
Chord grids: 
Font size:    
Page size: 

Am Asus2 Asus4 Dm E7 Fmaj7 G G4 G6
Rate #1 of 14 versions

Login - add to songbook

SHARE PAGE  



You need to log in to post comments