Guitar Tabs, Chords and Lyrics
Server problems seems to be fixed. Chordie has been experiencing problems with songs disappearing. These issues now seems to be fixed, but still verifying the fix. If you find anything strange, please email admin@chordie.com.


I Can See a Liar  Oasis

I CAN SEE A LIAR
As recorded by Oasis
(From the 2000 Album STANDING ON THE SHOULDER OF GIANTS)
Words and Music by Noel Gallagher
D5 Csus2 G D5V
x x 0 2 3 x x 3 x 0 3 x 3 x 0 0 0 x x 5 7 x x x
x 4[D5/C#] 7 x x x x 3 [C6]7 x x x x 2 [G/B]5 x x x x 1 [Bb5]3 3 x x
Bb6 Csus2III C5 D5V(type 2)
x 1 3 0 x x x 3 5 5 3 3 x 3 5 5 x x x 5 7 7 x x
x 0 [A5]2 2 x x x 0[Asus2] 2 2 0 0 x 3[Cadd9] 2 0 3 3 x 1 [Bb]3 3 3 x
[F]  
[1] [3] [3] [2] [1] [1]  
Gtr I (E A D G B E) - 'elec w/ distortion'
Gtr II (E A D G B E) - 'elec w/ distortion'
Gtr III (E A D G B E) - 'elec w/ distortion'
Intro
Q=130
[D5] [Csus2] [D5]  
[4/4] Gtrs I, II
E E E E +E E Q W
 
 ||-------------------|------|
 ||o-3-3-3-3-(3)-3----|------|
 ||--2-2-2-0-(0)-2----|------|
 ||--0-0-0-------0----|------|
 ||o-------3-(3)------|------|
 ||-------------------|------|

1. 2.
E E E [Csus2]E +E [D5]E E [G]E +W E E E E E E E E
 
 |-------------------|-------------||-----------------|
 |-3-3-3-3-(3)-3-0-0-|-(0)--------o||-0-0---------0-0-|
 |-2-2-2-0-(0)-2-0-0-|-(0)---------||-0-0---------0-0-|
 |-0-0-0-------0-0-0-|-(0)---------||-0-0---------0-0-|
 |-------3-(3)-------|------------o||-------------0---|
 |-----------------3-|-(3)---------||-3-3-1-0-1h3---3-|

+E E E E E E E E +E E E E E E E E +W
 
 |-------------------|-------------------|--------||
 |-(0)-0---------0-0-|-(0)-0---------0-0-|-(0)----||
 |-(0)-0---------0-0-|-(0)-0---------0-0-|-(0)----||
 |-(0)-0---------0-0-|-(0)-0---------0-0-|-(0)----||
 |---------------0---|---------------0---|--------||
 |-(3)-3-1-0-1h3---3-|-(3)-3-1-0-1h3---3-|-(3)----||

Verse
D5V D5/C#
 
 PM----------------------------|

E E Q E E E E E E Q E E E E
 
 |----------------|----------------|
 |----------------|----------------|
 |----------------|----------------|
 |-7-7-7--7-7-7-7-|-7-7-7--7-7-7-7-|
 |-5-5-5--5-5-5-4-|-4-4-4--4-4-4-4-|
 |----------------|----------------|

[C6] [G/B]  
 
 PM------------------------------|

E E Q E E E E +E E Q E E E E
 
 |----------------|-------------------|
 |----------------|-------------------|
 |----------------|-------------------|
 |-7-7-7--7-7-7-5-|-(5)-5-5--5-5-5-5S=|
 |-3-3-3--3-3-3-2-|-(2)-2-2--2-2-2-2S=|
 |----------------|-------------------|

D5V D5/C# C6 G/B
 
 PM----------------------------------------------------------------|

E E Q E E E E E E Q E E E E E E Q E E E E +E E Q E E E E
 
 |----------------|----------------|----------------|------------------|
 |----------------|----------------|----------------|------------------|
 |----------------|----------------|----------------|------------------|
 |-7-7-7--7-7-7-7-|-7-7-7--7-7-7-7-|-7-7-7--7-7-7-5-|-(5)-5-5--5-5-5-5-|
 |-5-5-5--5-5-5-4-|-4-4-4--4-4-4-4-|-3-3-3--3-3-3-2-|-(2)-2-2--2-2-2-2-|
 |----------------|----------------|----------------|------------------|

D5V D5/C# C6 G/B
 
 PM-----------------------------------------------------------------|

E E Q E E E E +E E Q E E E E Q Q E E E E +E E Q E E E E
 
 |----------------|------------------|---------------|-------------------|
 |----------------|------------------|---------------|-------------------|
 |----------------|------------------|---------------|-------------------|
 |-7-7-7--7-7-7-7-|-(7)-7-7--7-7-7-7-|-7--7--7-7-7-5-|-(5)-5-5--5-5-5-5S=|
 |-5-5-5--5-5-5-4-|-(4)-4-4--4-4-4-4-|-3--3--3-3-3-2-|-(2)-2-2--2-2-2-2S=|
 |----------------|------------------|---------------|-------------------|

D5V D5/C# C6 G/B Bb5
 
 PM----------------------------------------------------------------|

Q Q E E E E +E E Q E E E E Q Q E E E E +E E Q E E E E
 
 |---------------|------------------|---------------|------------------||
 |---------------|------------------|---------------|------------------||
 |---------------|------------------|---------------|------------------||
 |-7--7--7-7-7-7-|-(7)-7-7--7-7-7-7-|-7--7--7-7-7-5-|-(5)-5-5--5-5-5-3-||
 |-5--5--5-5-5-4-|-(4)-4-4--4-4-4-4-|-3--3--3-3-3-2-|-(2)-2-2--2-2-2-1-||
 |---------------|------------------|---------------|------------------||

Pre-Chorus
$
Q E E +E E [Bb6]Q E Q E E E E E
 
 |-----------------|----------------|
 |-----------------|----------------|
 |--------------0--|-0-0--0-0-0-0-0-|
 |-3--3-3-(3)-3-3--|-3-3--3-3-3-3-3-|
 |-1--1-1-(1)-1-1--|-1-1--1-1-1-1-1-|
 |-----------------|----------------|

Csus2III C5 D5V(tyC5 2) Bb5 Bb6
Q E E +E E Q E E E E E E E E Q E E +E E Q
 
 |-----------------|-----------------|-----------------|
 |-3--3-3-(3)-3-3--|-----------------|-----------------|
 |-5--5-5-(5)-5-5--|-5-5-5S7-7-7S5-5-|------0-(0)-0-0--|
 |-5--5-5-(5)-5-5--|-5-5-5S7-7-7S5-5S|=3--3-3-(3)-3-3--|
 |-3--3-3-(3)-3-3--|-3-3-3S5-5-5S3-3S|=1--1-1-(1)-1-1--|
 |-----------------|-----------------|-----------------|

E Q E E E E E [A5]Q. [Asus2]E +Q E E E [Cadd9]E E E E E E E
 
 |----------------|------0-(0)--0-0-|-----------------||
 |----------------|------0-(0)--0-0-|-0-3-3-3-3-3-3-3-||
 |-0-0--0-0-0-0-0-|-2----2-(2)--2-2-|-0-0-0-0-0-0-0-0-||
 |-3-3--3-3-3-3-3-|-2----2-(2)--2-2-|-0-2-2-2-2-2-2-2-||
 |-1-1--1-1-1-1-1-|-0----0-(0)--0-0-|-0-3-3-3-3-3-3-3-||
 |----------------|-----------------|-----------------||

Chorus
E E E E +E Q E +E E E E E E E E
 
 |------------------|-------------------|
 |-3-3-3-3-(3)-3--0-|-(0)-----------0-3-|
 |-2-2-2-0-(0)-2--0-|-(0)-----------0-2-|
 |-0-0-0-------0--0-|-(0)-----------0-0-|
 |-------3-(3)------|---------------0---|
 |----------------3-|-(3)-3-1-0-1h3-----|

E E E E +E Q E +E E E E E E E E E E E E +E Q E
 
 |------------------|-------------------|------------------|
 |-3-3-3-3-(3)-3--0-|-(0)-----------0-3-|-3-3-3-3-(3)-3--0-|
 |-2-2-2-0-(0)-2--0-|-(0)-----------0-2-|-2-2-2-0-(0)-2--0-|
 |-0-0-0-------0--0-|-(0)-----------0-0-|-0-0-0-------0--0-|
 |-------3-(3)------|---------------0---|-------3-(3)------|
 |----------------3-|-(3)-3-1-0-1h3-----|----------------3-|

+E E E E E E E E E E E E +E Q E +E E E E E E E E
 
 |-------------------|------------------|-------------------|
 |-(0)-----------0-3-|-3-3-3-3-(3)-3--0-|-(0)-----------0-0-|
 |-(0)-----------0-2-|-2-2-2-0-(0)-2--0-|-(0)-----------0-0-|
 |-(0)-----------0-0-|-0-0-0-------0--0-|-(0)-----------0-0-|
 |---------------0---|-------3-(3)------|---------------0---|
 |-(3)-3-1-0-1h3-----|----------------3-|-(3)-3-1-0-1h3---3-|

To Coda
E E E E E E E E +E E E E E E E E +W
 
 |-----------------|-------------------|---------||
 |-0-----------0-0-|-(0)-----------0-0-|-(0)-----||
 |-0-----------0-0-|-(0)-----------0-0-|-(0)-----||
 |-0-----------0-0-|-(0)-----------0-0-|-(0)-----||
 |-------------0---|---------------0---|---------||
 |-3-3-1-0-1h3---3-|-(3)-3-1-0-1h3---3-|-(3)-----||

Verse
E E Q E E E E E E Q E E E E
 
 |----------------|----------------|
 |----------------|----------------|
 |----------------|----------------|
 |-7-7-7--7-7-7-7-|-7-7-7--7-7-7-7-|
 |-5-5-5--5-5-5-4-|-4-4-4--4-4-4-4-|
 |----------------|----------------|

E E Q E E E E +E E E E E E E E E E Q E E E E
 
 |----------------|-------------------|----------------|
 |----------------|-------------------|----------------|
 |----------------|-------------------|----------------|
 |-7-7-7--7-7-7-5-|-(5)-5-5-5-5-5-5-5S|=7-7-7--7-7-7-7-|
 |-3-3-3--3-3-3-2-|-(2)-2-2-2-2-2-2-2S|=5-5-5--5-5-5-4-|
 |----------------|-------------------|----------------|

D.S. al Coda
E E Q E E E E E E Q E E E E +E E E E E E E E
 
 |----------------|----------------|---------------------||
 |----------------|----------------|---------------------||
 |----------------|----------------|---------------------||
 |-7-7-7--7-7-7-7-|-7-7-7--7-7-7-5-|-(5)-5-5-5-5-5-5-5---||
 |-4-4-4--4-4-4-4-|-3-3-3--3-3-3-2-|-(2)-2-2-2-2-2-2-2---||
 |----------------|----------------|---------------------||

Instrumental
&
[Bb]Gtr II[F]
[E]| [E]| [E]| [E]| [E]| [E]| [E]| [E]|
[/] [/] [/] [/] [/] [/] [/] [/] 
Gtr I
a +E +E E E Q. a +E
 
 |--------------------------------------------------|
 |--------------------------------------------------|
 |-12b14-(12)pb14r(12)-10h12---------12b14-(12)pb14-|
 |---------------------------12---------------------|
 |--------------------------------------------------|
 |--------------------------------------------------|

[E]| [E]| [E]| [E]| [E]| [E]| [E]| [E]|
[/] [/] [/] [/] [/] [/] [/] [/] 
+E E E E Q. a +E
 
 |------------------------------------------|
 |------------------------------------------|
 |-(12)pb14-12-10-12---------12b14-(12)pb14-|
 |-------------------12---------------------|
 |------------------------------------------|
 |------------------------------------------|

[G]  
[E]| [E]| [E]| [E]| [E]| [E]| [E]| [E]|
[/] [/] [/] [/] [/] [/] [/] [/] 
+E +E E E Q. E
 
 |----------------------------------------|
 |----------------------------------------|
 |-(12)pb14r(12)-10h12--------------------|
 |---------------------12-------------10--|
 |----------------------------------------|
 |----------------------------------------|

|
| Gtr III
| H Q E a +E
 
 |----------------------------------------|
 |----------------------------------------|
 |-----------------------------12b14-(12)-|
 |----------------------------------------|
 |----------------------------------------|
 |----------------------------------------|

[Bb] [F] 
[E]| [E]| [E]| [E]| [E]| [E]| [E]| [E]| [E]| [E]| [E]| [E]| [E]| [E]| [E]| [E]|
[/] [/] [/] [/] [/] [/] [/] [/] [/] [/] [/] [/] [/] [/] [/] [/] 
+E E H E a +E +E +E E E Q. a +E
 
 |--------------------------------------------------------------|-----------------------------------------|
 |--------------------------------------------------------------|-----------------------------------------|
 |----------------------------------------------12b14-(12)pb14==|=(12)r(12)-10h12----------12b14-(12)pb14-|
 |-(10)h=====12--12---------------------------------------------|------------------12---------------------|
 |--------------------------------------------------------------|-----------------------------------------|
 |--------------------------------------------------------------|-----------------------------------------|

|
| +E +E E a +E +E +E E E +H +Q. E
 
 |--------------------------------------------------------------|-----------------------------------------|
 |------------------13b15-(13)-(13)pb15r(13)--------------------|-----------------------------------------|
 |-(12)pb14r(12)p10--------------------------12--------10-------|-(10)------------(10)------------12------|
 |--------------------------------------------------------------|-----------------------------------------|
 |--------------------------------------------------------------|-----------------------------------------|
 |--------------------------------------------------------------|-----------------------------------------|

[E]| [E]| [E]| [E]| [E]| [E]| [E]| [E]|
[/] [/] [/] [/] [/] [/] [/] [/]  
+E +E E E Q E E
 
 |--------------------------------|
 |--------------------------------|
 |-(12)pb14r(12)-10h12------------|
 |---------------------12---10h12-|
 |--------------------------------|
 |--------------------------------|

|
| +H. E E
 
 |--------------------------------|
 |--------------------------10----|
 |-(12)------------------------12-|
 |--------------------------------|
 |--------------------------------|
 |--------------------------------|

[A5] [Cadd9] 
[E]| [E]| [E]| [E]| [E]| [E]| [E]| [E]| [E]| [E]| [E]| [E]| [E]| [E]| [E]| [E]|
[/] [/] [/] [/] [/] [/] [/] [/] [/] [/] [/] [/] [/] [/] [/] [/] 
~~~~~~~~~~~~~~~~~~~~~~~~~~~~~~~~~~~~~~~~~~~~~~~~
[+E] [E] [E] [E] [E] [E] [E] [E] [E] [E] [E] [E] [E] [E] [E] [E]  
 
 |----------------------------------|----------------------------||
 |----------------------------------|----------------------------||
 |----------------------------------|----------------------------||
 |-(12)-----12---12--12-12-12-12-12-|--12--12-12-12-12-12-12-12\-||
 |----------------------------------|----------------------------||
 |----------------------------------|----------------------------||

|
| ~~~~~~~~~~~~~~~~~~~~~~~~~~~~~~
| +E +E +H. +W
 
 |----------------------------------|----------------------------||
 |----------------------------------|----------------------------||
 |-(12)b14-(12)-(12)----------------|-(12)-----------------------||
 |----------------------------------|----------------------------||
 |----------------------------------|----------------------------||
 |----------------------------------|----------------------------||

Chorus
[D5]Gtrs I,[Csus2] II[D5] [G]
E E E E +E Q E
 
 ||-------------------------------|
 ||o--3-3-3-3--(3)-3-----------0--|
 ||---2-2-2-0--(0)-2-----------0--|
 ||---0-0-0--------0-----------0--|
 ||o--------3--(3)----------------|
 ||----------------------------3--|

|
| Gtr III
| H +Q. a +E
 
 ||-------------------------------|
 ||o------------------------------|
 ||-------------------12b14==(12)-|
 ||--12-------(12)----------------|
 ||o------------------------------|
 ||-------------------------------|

+E E E E E E E [D5] E E E E [Csus2]E +E [D5]Q [G] E
 
 |----------------------------|--------------------------------|
 |--(0)------------------0--3-|---3--3-3-3--(3)-3-----------0--|
 |--(0)------------------0--2-|---2--2-2-0--(0)-2-----------0--|
 |--(0)------------------0--0-|---0--0-0--------0-----------0--|
 |-----------------------0----|----------3--(3)----------------|
 |--(3)---3---1--0--1h3-------|-----------------------------3--|

|
| +E +E E E Q E E +H +Q. a +E
 
 |----------------------------|--------------------------------|
 |----------------------------|--------------------------------|
 |-(12)r(12)-10h12------------|--------------------12b14==(12)-|
 |-----------------12---10h12-|-(12)-------(12)----------------|
 |----------------------------|--------------------------------|
 |----------------------------|--------------------------------|

+E E E E E E E [D5] E E E E [Csus2]E +E [D5]Q [G] E
 
 |--------------------------|--------------------------------|
 |-(0)-----------------0--3-|---3--3-3-3--(3)-3-----------0--|
 |-(0)-----------------0--2-|---2--2-2-0--(0)-2-----------0--|
 |-(0)-----------------0--0-|---0--0-0--------0-----------0--|
 |---------------------0----|----------3--(3)----------------|
 |-(3)--3---1--0--1h3-------|-----------------------------3--|

|
| E +E E E Q E E +H +Q. a +E
 
 |--------------------------|--------------------------------|
 |--------------------------|--------------------------------|
 |-12r(12)-10h12------------|--------------------12b14==(12)-|
 |---------------12---10h12-|-(12)-------(12)----------------|
 |--------------------------|--------------------------------|
 |--------------------------|--------------------------------|

[D5]  
[+E] [E] [E] [E] [E] [E] [E] [E]  
 
 |-----------------------------|
 |--(0)------------------0--3--|
 |--(0)------------------0--2--|
 |--(0)------------------0--0--|
 |-----------------------0-----|
 |--(3)---3---1--0--1h3--------|

|
| +E +E E E Q E E
 
 |-----------------------------|
 |-----------------------------|
 |-(12)r(12)-10h12-------------|
 |-----------------12---10h12--|
 |-----------------------------|
 |-----------------------------|

1.
E E E [Csus2]E +E [D5]Q [G] E +E E E E E E E [D5] E
 
 |--------------------------------|-----------------------------||
 |---3--3-3-3--(3)-3-----------0--|--(0)------------------0--3-o||
 |---2--2-2-0--(0)-2-----------0--|--(0)------------------0--2--||
 |---0--0-0--------0-----------0--|--(0)------------------0--0--||
 |----------3--(3)----------------|-----------------------0----o||
 |-----------------------------3--|--(3)---3---1--0--1h3--------||

|
| +H +Q. a +E +E +E E E Q E E
 
 |--------------------------------|-----------------------------||
 |--------------------------------|----------------------------o||
 |--------------------12b14==(12)-|-(12)r(12)-10h12-------------||
 |-(12)-------(12)----------------|-----------------12---10h12--||
 |--------------------------------|----------------------------o||
 |--------------------------------|-----------------------------||

Out-Chorus
2.
[D5] E E E [Csus2]E +E [D5]Q [G] E +E E E E E E E E
 
 |------------------------------|------------------------------------|
 |--3-3-3-3--(3)-3-----------0--|--(0)-----------------0----------0--|
 |--2-2-2-0--(0)-2-----------0--|--(0)-----------------0----------0--|
 |--0-0-0--------0-----------0--|--(0)-----------------0----------0--|
 |--------3--(3)----------------|----------------------0-------------|
 |---------------------------3--|--(3)---3---1--0--1h3------------3--|

|
| H +Q. a +E +E +E E E Q. a +E
 
 |------------------------------|------------------------------------|
 |------------------------------|------------------------------------|
 |------------------12b14==(12)-|-(12)r(12)-10h12--------12b14==(12)-|
 |-12-------(12)----------------|-----------------12-----------------|
 |------------------------------|------------------------------------|
 |------------------------------|------------------------------------|

[E] [E] [E] [E] [E] [E] [E] [E]  
 
 |------------------------------------|
 |---0------------------0----------0--|
 |---0------------------0----------0--|
 |---0------------------0----------0--|
 |----------------------0-------------|
 |---3----3---1--0--1h3------------3--|

|
| +E +E E E Q. a +E
 
 |------------------------------------|
 |------------------------------------|
 |-(12)r(12)-10h12--------12b14==(12)-|
 |-----------------12-----------------|
 |------------------------------------|
 |------------------------------------|

E E E E E E E E +W [D5]E E E [Csus2]E +E [D5]Q.
 
 |----------------------------|-------------|------------------*|
 |---0-------------------0--0-|--(0)--------|-3-3-3-3-(3)-3\---*|
 |---0-------------------0--0-|--(0)--------|-2-2-2-0-(0)-2\---*|
 |---0-------------------0--0-|--(0)--------|-0-0-0-------0\---*|
 |-----------------------0----|-------------|-------3-(3)------*|
 |---3----3---1--0--1h3-----3-|--(3)--------|------------------*|

|
| +E +E E E Q E E +W W
 
 |----------------------------|-------------|------------------*|
 |----------------------------|-------------|------------------*|
 |-(12)r(12)-10h12------10----|-------------|------------------*|
 |-----------------12------12-|-(12)--------|------------------*|
 |----------------------------|-------------|------------------*|
 |----------------------------|-------------|------------------*|

Duration Legend
 
 ---------------
 W - whole; H - half; Q - quarter; E - 8th; S - 16th; T - 32nd; X - 64th; a - acciaccatura

+ - note tied to previous; . - note dotted; .. - note double dotted
Uncapitalized letters represent notes that are staccato (1/2 duration)
Irregular groupings are notated above the duration line
Duration letters will always appear directly above the note/fret number it represents the
duration for. Duration letters with no fret number below them represent rests. Multi-
bar rests are notated in the form Wxn, where n is the number of bars to rest for. Low
melody durations appear below the staff
Tablature Legend
 
 ----------------

h - hammer-on
p - pull-off
b - bend
pb - pre-bend
r - bend release (if no number after the r, then release immediately)
/\ - slide into or out of (from/to "nowhere")
s - legato slide
S - shift slide
- natural harmonic
(n) - artificial harmonic
n(n) - tapped harmonic
~ - vibrato
tr - trill
T - tap
TP - trem. picking
PM - palm muting
\n/ - tremolo bar dip; n = amount to dip
\n - tremolo bar down
n/ - tremolo bar up
/n\ - tremolo bar inverted dip
= - hold bend; also acts as connecting device for hammers/pulls
- volume swell (louder/softer)
x - on rhythm slash represents muted slash
o - on rhythm slash represents single note slash
Misc Legend
 
 -----------

| - bar
|| - double bar
||o - repeat start
o|| - repeat end
*| - double bar (ending)
: - bar (freetime)
$ - Segno
& - Coda
Tempo markers - = BPM(8/16=s8/s16), where s8 = swing 8ths, s16 = swing 16ths

Important: The song above is NOT stored on the Chordie server. The original song is hosted at www.guitaretab.com. Chordie works as a search engine and provides on-the-fly formatting. Chordie does not index songs against artists'/composers' will. To remove this song please click here.

Text color:
Chord color:
Chord grids: 
Font size:    
Page size: 

A5 Asus2 Bb Bb5 Bb6 C6 Cadd9 Csus2 D5 E F G G/B
Rate #4 of 8 versions

Login - add to songbook

SHARE PAGE  



You need to log in to post comments