Guitar Tabs, Chords and Lyrics
Major upgrade!! After one year development the new version of Chordie is now online! Please give feedback.


Love Like a Bomb  Oasis

 
 ----------------

E (022100)
E7 (020100)
Aadd9 (577600)
D (xx0232)
G (320033)
E/B (x22100)
D/F# (200232)
INTRO: | E | E7 | E | E7 | E | E7 |
V1: i'm [Aadd9]seeing a [D]whole other [G]world in my [E/B]mind
girl i'm [Aadd9]feeling, im [D]breathing in [G]love all the [E]time
you turn me [Aadd9]on, yer loves like a [D]bomb, you're [G]blowing my [E/B]mind
you turn me [Aadd9]on, yer loves like a [D]bomb, you're [G]blowing my [E/B]mind
V2: am i [Aadd9]reaching the [D]world that i [G]want deep in[E/B]side?
girl i [Aadd9]mean it and [D]you hold the [G]key to the [E]shrine
'cos you turn me [Aadd9]on, yer loves like a [D]bomb, you're [G]blowing my [E/B]mind
you turn me [Aadd9]on, yer loves like a [D]bomb, you're [G]blowing my [E/B]mind
 
 SOLO: e|----------------|----------------|-----------------------0-----|
 B|----------------|----------------|-----------------------------|
 G|------1--2--1---|------1--2--1---|------1--2--1---1--2-----1---|
 D|-2--2---------2-|-2--2---------2-|-2--2---------2------2-----2-|
 A|----------------|----------------|-----------------------------|
 E|-0--------------|-0--------------|-0---------------------0-----|

blowin my mind____ blowin my
[(E)]  
 
 e|----------------|----------------|--------0-----0-----0------0-|
 B|----------------|----------------|---------------------------0-|
 G|------1--2--1---|------1--2--1---|------1---1-----1-----1----1-|
 D|-2--2---------2-|-2--2---------2-|-2--2-------2-----2-----2--2-|
 A|----------------|----------------|---------------------------2-|
 E|-0--------------|-0--------------|-0------0-----0-----0------0-|

mind____ blowin my mind____ she's blowin my (mind)
|(E) | E |
[(mind)]  
[Aadd9] [D/F#] [G] [E/B] 
[na] [na] [na] [na] [na] [na] [naa] 
na na [Aadd9]naa na, [D/F#]na na na [G]na na na [E]naa
na na na na [Aadd9]naa, na na na [D/F#]naa, [G]na na na [E/B]naa
na na na [Aadd9]naa, na na na [D/F#]naa, [G]na na na [E/B]naa
V3: yeah i'm [Aadd9]seeing a [D]whole other [G]world in my [E/B]mind
girl i'm [Aadd9]feeling, that [D]we've been in [G]love all the [E]time
'cos you turn me [Aadd9]on, yer loves like a [D]bomb, you're [G]blowing my [E/B]mind
you turn me [Aadd9]on, yer loves like a [D]bomb, you're [G]blowing my [E/B]mind
yeah im [Aadd9]seeing
-rigs-

Important: The song above is NOT stored on the Chordie server. The original song is hosted at www.guitaretab.com. Chordie works as a search engine and provides on-the-fly formatting. Chordie does not index songs against artists'/composers' will. To remove this song please click here.

Text color:
Chord color:
Chord grids: 
Font size:    
Page size: 

Aadd9 D D/F# E E/B G
Rate #0 of 11 versions

Login - add to songbook

SHARE PAGE  



You need to log in to post comments