Guitar Tabs, Chords and Lyrics
Login is temporarily disabled for some users. Do not panic. Will be back in an hour or two. DO NOT REREGISTER!!


Self Esteem   The Offspring

 
 e[----------------------------------------------------------------]
 b[----------------------------------------------------------------]
 g[-----------10-10--5--5--5555---------------10-10--5--5--5555----]
 d[-7--7--777710-10--5--5--55555-5--7--7--777710-10--5--5--55555-5-]
 a[-7--7--77778--8---3--3--33335-5--7--7--77778--8---3--3--33335-5-]
 e[-5--5--5555-----------------3-3--5--5--5555-----------------3-3-]
 e[---------------------------------]
 b[---------------------------------]
 g[----------------------------5-5--]
 d[-3--3-3-3-3-3-3-3-3-3-3-3-055555-]
 a[-3--3-3-3-3-3-3-3-3-3-3-3-053535-]
 e[-1--1-1-1-1-1-1-1-1-1-1-1-03-3-3-]

 


 pm[.....................]


 


 Verse 1


 

 
 e[------------------------------------------------------------------]
 b[------------------------------------------------------------------]
 g[-----------------------------------------------------\xx--12--12/-]
 d[-----------------------------------------------------\xx12121212/-]
 a[----------888833333-----------------888833333--------\xx12101210/-]
 e[-55555-----------------333355555-----------------3333---10--10----]
 e[------------------------------------------------------]
 b[------------------------------------------------------]
 g[------------------------------------------------------]
 d[------------------------------------------------------]
 a[----------888833333-----------------888833333---------]
 e[-55555-----------------333355555-----------------3333-]
 e[------------------------------------------------------------------]
 b[------------------------------------------------------------------]
 g[-----------------------------------------------------\xx--12--12/-]
 d[-----------------------------------------------------\xx12121212/-]
 a[----------888833333-----------------888833333--------\xx12101210/-]
 e[-55555-----------------333355555-----------------3333---10--10----]
 e[------------------------------------------------------]
 b[------------------------------------------------------]
 g[--------------55555---------------------55555---------]
 d[-77777----333355555----555577777----333355555----5555-]
 a[-77777----333333333----555577777----333333333----5555-]
 e[-55555----1111---------333355555----1111---------3333-]

 


 pm[....................................................]


 


 

 
 e[------------------------------------------------------]
 b[------------------------------------------------------]
 g[--------------55555---------------------55555---------]
 d[-77777----333355555----555577777----333355555----5555-]
 a[-77777----333333333----555577777----333333333----5555-]
 e[-55555----1111---------333355555----1111---------3333-]

 


 pm[.........................................]


 


 Chorus 1


 

 
 e[----------------------------------------------------------------]
 b[----------------------------------------------------------------]
 g[-----------10-10--5--5--5555---------------10-10--5--5--5555----]
 d[-7--7--777710-10--5--5--55555-5--7--7--777710-10--5--5--55555-5-]
 a[-7--7--77778--8---3--3--33335-5--7--7--77778--8---3--3--33335-5-]
 e[-5--5--5555-----------------3-3--5--5--5555-----------------3-3-]
 e[----------------------------------------------------------------]
 b[----------------------------------------------------------------]
 g[-----------10-10--5--5--5555---------------10-10--5--5--5555----]
 d[-7--7--777710-10--5--5--55555-5--7--7--777710-10--5--5--55555-5-]
 a[-7--7--77778--8---3--3--33335-5--7--7--77778--8---3--3--33335-5-]
 e[-5--5--5555-----------------3-3--5--5--5555-----------------3-3-]

 


 


 Verse 2


 

 
 e[------------------------------------------------------]
 b[------------------------------------------------------]
 g[------------------------------------------------------]
 d[------------------------------------------------------]
 a[----------888833333-----------------888833333---------]
 e[-55555-----------------333355555-----------------3333-]
 e[-----------------------------------------------------------------]
 b[-----------------------------------------------------------------]
 g[---------------------55555-------------------------55555---------]
 d[-77-77777----1010101055555----555577777----1010101055555----5555-]
 a[-77-77777----1010101033333----555577777----1010101033333----5555-]
 e[-55-55555----8-8-8-8----------333355555----8-8-8-8----------3333-]

 


 pm[....................................................]


 


 Chorus 1


 

 
 e[----------------------------------------------------------------]
 b[----------------------------------------------------------------]
 g[-----------10-10--5--5--5555---------------10-10--5--5--5555----]
 d[-7--7--777710-10--5--5--55555-5--7--7--777710-10--5--5--55555-5-]
 a[-7--7--77778--8---3--3--33335-5--7--7--77778--8---3--3--33335-5-]
 e[-5--5--5555-----------------3-3--5--5--5555-----------------3-3-]
 e[----------------------------------------------------------------]
 b[----------------------------------------------------------------]
 g[-----------10-10--5--5--5555---------------10-10--5--5--5555----]
 d[-7--7--777710-10--5--5--55555-5--7--7--777710-10--5--5--55555-5-]
 a[-7--7--77778--8---3--3--33335-5--7--7--77778--8---3--3--33335-5-]
 e[-5--5--5555-----------------3-3--5--5--5555-----------------3-3-]

 


 


 Chorus 2


 

 
 e[-------------------------------------------------------------]
 b[----------------------------------------------------33777777-]
 g[-7--7--7777---------------5-5--7--7--7777-----------33777777-]
 d[-7--7--77778-8--3--3--33335-5--7--7--77778-8--3--3--33777777-]
 a[-5--5--55558-8--3--3--33333-3--5--5--55558-8--3--3--33777777-]
 e[-----------6-6--1--1--1111---------------6-6--1--1-----------]

 


 ********


 


 

 
 e[-------------------------------------------------------------]
 b[----------------------------------------------------33777777-]
 g[-7--7--7777---------------5-5--7--7--7777-----------33777777-]
 d[-7--7--77778-8--3--3--33335-5--7--7--77778-8--3--3--33777777-]
 a[-5--5--55558-8--3--3--33333-3--5--5--55558-8--3--3--33777777-]
 e[-----------6-6--1--1--1111---------------6-6--1--1-----------]

 


 ********


 


 

 
 e[-------------------------------------------------------------]
 b[----------------------------------------------------33777777-]
 g[-7--7--7777---------------5-5--7--7--7777-----------33777777-]
 d[-7--7--77778-8--3--3--33335-5--7--7--77778-8--3--3--33777777-]
 a[-5--5--55558-8--3--3--33333-3--5--5--55558-8--3--3--33777777-]
 e[-----------6-6--1--1--1111---------------6-6--1--1-----------]

 


 ********


 


 

 
 e[-------------------------------------------------------------]
 b[-------------------------------------------------------------]
 g[-7--7--7777-----5--5--5555------------------------------5-5--]
 d[-7--7--77778-8--5--5--55555-5--3--3-3-3-3-3-3-3-3-3-3-055555-]
 a[-5--5--55558-8--3--3--33335-5--3--3-3-3-3-3-3-3-3-3-3-053535-]
 e[-----------6-6------------3-3--1--1-1-1-1-1-1-1-1-1-1-03-3-3-]

 


 pm[...................]


 


 Verse 3


 

 
 e[------------------------------------------------------------------]
 b[------------------------------------------------------------------]
 g[-----------------------------------------------------\xx--12--12/-]
 d[-----------------------------------------------------\xx12121212/-]
 a[----------888833333-----------------888833333--------\xx12101210/-]
 e[-55555-----------------333355555-----------------3333---10--10----]
 e[------------------------------------------------------]
 b[------------------------------------------------------]
 g[------------------------------------------------------]
 d[------------------------------------------------------]
 a[----------888833333-----------------888833333---------]
 e[-55555-----------------333355555-----------------3333-]
 e[------------------------------------------------------------------]
 b[------------------------------------------------------------------]
 g[-----------------------------------------------------\xx--12--12/-]
 d[-----------------------------------------------------\xx12121212/-]
 a[----------888833333-----------------888833333--------\xx12101210/-]
 e[-55555-----------------333355555-----------------3333---10--10----]
 e[-----------------------------------------------------------------]
 b[-----------------------------------------------------------------]
 g[---------------------55555-------------------------55555---------]
 d[-77-77777----1010101055555----555577777----1010101055555----5555-]
 a[-77-77777----1010101033333----555577777----1010101033333----5555-]
 e[-55-55555----8-8-8-8----------333355555----8-8-8-8----------3333-]

 


 pm[...............................................................]


 


 

 
 e[-----------------------------------------------------------------]
 b[-----------------------------------------------------------------]
 g[---------------------55555-------------------------55555---------]
 d[-77-77777----1010101055555----555577777----1010101055555----5555-]
 a[-77-77777----1010101033333----555577777----1010101033333----5555-]
 e[-55-55555----8-8-8-8----------333355555----8-8-8-8----------3333-]

 


 pm[....................................................]


 


 Chorus 1


 

 
 e[----------------------------------------------------------------]
 b[----------------------------------------------------------------]
 g[-----------10-10--5--5--5555---------------10-10--5--5--5555----]
 d[-7--7--777710-10--5--5--55555-5--7--7--777710-10--5--5--55555-5-]
 a[-7--7--77778--8---3--3--33335-5--7--7--77778--8---3--3--33335-5-]
 e[-5--5--5555-----------------3-3--5--5--5555-----------------3-3-]
 e[----------------------------------------------------------------]
 b[----------------------------------------------------------------]
 g[-----------10-10--5--5--5555---------------10-10--5--5--5555----]
 d[-7--7--777710-10--5--5--55555-5--7--7--777710-10--5--5--55555-5-]
 a[-7--7--77778--8---3--3--33335-5--7--7--77778--8---3--3--33335-5-]
 e[-5--5--5555-----------------3-3--5--5--5555-----------------3-3-]

 


 


 Chorus 2


 

 
 e[-------------------------------------------------------------]
 b[----------------------------------------------------33777777-]
 g[-7--7--7777---------------5-5--7--7--7777-----------33777777-]
 d[-7--7--77778-8--3--3--33335-5--7--7--77778-8--3--3--33777777-]
 a[-5--5--55558-8--3--3--33333-3--5--5--55558-8--3--3--33777777-]
 e[-----------6-6--1--1--1111---------------6-6--1--1-----------]

 


 ********


 


 

 
 e[-------------------------------------------------------------]
 b[----------------------------------------------------33777777-]
 g[-7--7--7777---------------5-5--7--7--7777-----------33777777-]
 d[-7--7--77778-8--3--3--33335-5--7--7--77778-8--3--3--33777777-]
 a[-5--5--55558-8--3--3--33333-3--5--5--55558-8--3--3--33777777-]
 e[-----------6-6--1--1--1111---------------6-6--1--1-----------]

 


 ********


 


 

 
 e[-------------------------------------------------------------]
 b[----------------------------------------------------33777777-]
 g[-7--7--7777---------------5-5--7--7--7777-----------33777777-]
 d[-7--7--77778-8--3--3--33335-5--7--7--77778-8--3--3--33777777-]
 a[-5--5--55558-8--3--3--33333-3--5--5--55558-8--3--3--33777777-]
 e[-----------6-6--1--1--1111---------------6-6--1--1-----------]

 


 ********


 


 

 
 e[--------------------------------------------------------------]
 b[--------------------------------------------------------------]
 g[-7--7--7777-----5--5--5555------------------------------5-5---]
 d[-7--7--77778-8--5--5--55555-5--3--3-3-3-3-3-3-3-3-3-3-0555557-]
 a[-5--5--55558-8--3--3--33335-5--3--3-3-3-3-3-3-3-3-3-3-0535357-]
 e[-----------6-6------------3-3--1--1-1-1-1-1-1-1-1-1-1-03-3-35-]


Important: The song above is NOT stored on the Chordie server. The original song is hosted at www.guitaretab.com. Chordie works as a search engine and provides on-the-fly formatting. Chordie does not index songs against artists'/composers' will. To remove this song please click here.

This song is displayed as text-only. Transposing and tuning is only available for chordpro-songs.
Rate #1 of 9 versions

Jango Player

Login - add to songbook

SHARE PAGE  



You need to log in to post comments