Guitar Tabs, Chords and Lyrics
Login is temporarily disabled for some users. Do not panic. Will be back in an hour or two. DO NOT REREGISTER!!


Fix You  The Offspring

Song: Fix You
Atrist: The Offspring
Album: Rise and Fall, Rage and Grace
Year: 2008
Tab by: Manuel (maanuueell@gmail.com)
Listen: http://www.imeem.com/theoffspring/music/UYORmX8T/the_offspring_fix_you/
Intro:
[E5] [E5]  
 
 e|------------------------------------|------------------------------------|
 B|------------------------------------|------------------------------------|
 G|------4-------4-4------4-------4-4--|------4-------4-4------4-------4-4--|
 D|--2-2---2---2------2-2---2---2------|--2-2---2---2------2-2---2---2------|
 A|------------------------------------|------------------------------------|
 E|------------------------------------|------------------------------------|

Verse 1 (Guitar 1 keeps playing this mostly the whole song):
[E5] [B5]  
 
 e|------------------------------------|------------------------------------|
 B|------------------------------------|------------------------------------|
 G|------4-------4-4------4-------4-4--|------------------------------------|
 D|--2-2---2---2------2-2---2---2------|------4-------4-4------4-------4-4--|
 A|------------------------------------|--2-2---2---2------2-2---2---2------|
 E|------------------------------------|------------------------------------|

She wakes up, Rage and grace, Pulling me closer, pushing away
[D5] [A5]  
 
 e|--------------------------------------|-------------------------------------|
 B|--------------------------------------|-------------------------------------|
 G|--------2-------2-2------2-------2-2--|-------------------------------------|
 D|----0-0---0---0------0-0---0---0------|------2-------2-2-------2-------2-2--|
 A|--------------------------------------|--0-0---0---0-------0-0---0---0------|
 E|--------------------------------------|-------------------------------------|

And me, The sharpest thorn on your vine Twisting and turning, We?re all intertwined
[E5]Broken wing, Empty glass,
[B5]Words that scream and bounce right back
[D5]She says, you know, we?d all like to rearra[A5]nge
E5, B5, D5, A5
I wish I could [E5]fix you
And [B5]make you how I want you
I wish I could [D5]fix you
And I [A5]wish you could fix me
I wish I could [E5]heal you
And [B5]mend where you are broken
I wish I could [D5]heal you
And I [A5]wish you could heal me
E5, B5, D5, A5
A [E5]beaming sunrise buries the night
The [B5]setting sun destroys the light
[D5]Then she says, baby, I?ve gotta get going
[A5]Cutting each other without even knowing
[E5]She sees a million stars like [B5]holes in the sky
All God?s tears for [D5]her they cry
And I am in her [A5]rain
I wish I could [E5]fix you
And [B5]make you how I want you
I wish I could [D5]fix you
And I [A5]wish you could fix me
I wish I could [E5]heal you
And [B5]mend where you are broken
I wish I could [D5]heal you
And I [A5]wish you could heal me
E5, B5, D5, A5 (2x)
[E5]Broken wing, Empty glass,
[B5]Words that scream and bounce right back
[D5]She says, you know, we?d all like to rearra[A5]nge

Important: The song above is NOT stored on the Chordie server. The original song is hosted at www.guitaretab.com. Chordie works as a search engine and provides on-the-fly formatting. Chordie does not index songs against artists'/composers' will. To remove this song please click here.

Text color:
Chord color:
Chord grids: 
Font size:    
Page size: 

A5 B5 D5 E5
Rate #1 of 10 versions

Jango Player

Login - add to songbook

SHARE PAGE  



You need to log in to post comments