Guitar Tabs, Chords and Lyrics
Login is temporarily disabled for some users. Do not panic. Will be back in an hour or two. DO NOT REREGISTER!!


Conspiracy of One   The Offspring

 
 e|---------------------------------------------------------------------------|
 B|---------------------------------------------------------------------------|
 G|-99-7-9-7-9-11-121212-7-12-11----------------------------------------------|
 D|-99-7-9-7-9-11-121212-7-12-11----------------------------------------------|
 A|-77-5-7-5-7--9-101010-5-10--9----------------------------------------------|
 E|---------------------------------------------------------------------------|

 


 


 Pre-Verse


 

 
 e|---------------------------------------------------------------------------|
 B|---------------------------------------------------------------------------|
 G|-9-999-9-999-9-999-9-999-9-999-9-999-9-999-9-999-9-999-9-999-9-999-99999\--|
 D|-9-999-9-999-9-999-9-999-9-999-9-999-9-999-9-999-9-999-9-999-9-999-99999\--|
 A|-7-777-7-777-7-777-7-777-7-777-7-777-7-777-7-777-7-777-7-777-7-777-77777\--|
 E|---------------------------------------------------------------------------|

 


 xxx xxx xxx xxx xxx xxx xxx xxx xxx xxx xxx


 Verse 1


 

 
 e|---------------------------------------------------------------------------|
 B|---------------------------------------------------------------------------|
 G|---------------------------------------------------------------------------|
 D|---------------------------------------------------------------------------|
 A|-7----------5---------7-------------7-------------5----------7-------------|
 E|---------------------------------------------------------------------------|

 


 (this part is played during the first verse, with some sort of effect, its quiet


 In the background)


 


 Verse 2


 

 
 e|---------------------------------------------------------------------------|
 B|---------------------------------------------------------------------------|
 G|-9999-7777-9999/-11-12-11-7--9999-7777-9999--55-77-------------------------|
 D|-xxxx-xxxx-xxxx/--x--x--x-x--xxxx-xxxx-xxxx--55-77-------------------------|
 A|-7777-5555-7777/--9-10--9-5--7777-5555-7777--33-55-------------------------|
 E|---------------------------------------------------------------------------|

 


 


 Chorus 1


 

 
 e|---------------------------------------------------------------------------|
 B|---------------------------------------------------------------------------|
 G|-9-9-7-9-7----------------------5-5-7-7------------------------------------|
 D|-9-9-7-9-7--2-5-5-5---5-7-5-7-5-5-5-7-7------------------------------------|
 A|-7-7-5-7-5--2-5-5-5---5-7-5-7-5-3-3-5-5------------------------------------|
 E|------------0-3-3-3---3-5-3-5-3--------------------------------------------|

 


 


 Chorus 2


 

 
 e|---------------------------------------------------------------------------|
 B|---------------------------------------------------------------------------|
 G|-9-9-7-9-7-------------------------------7---------------------------------|
 D|-9-9-7-9-7--2-5-5-5---5-7-5-7-5--7-5-4-2-7---------------------------------|
 A|-7-7-5-7-5--2-5-5-5---5-7-5-7-5--7-5-4-2-5---------------------------------|
 E|------------0-3-3-3---3-5-3-5-3--5-3-2-0-----------------------------------|

 


 


 Verse 3


 

 
 e|---------------------------------------------------------------------------|
 B|---------------------------------------------------------------------------|
 G|---------------------------------------------------------------------------|
 D|-2-222-2-222-2-222-5-555-5-555-7-777-7-777-7-777-7-777-7-777-7-777---------|
 A|-2-222-2-222-2-222-5-555-5-555-7-777-7-777-7-777-7-777-7-777-7-777---------|
 E|-0-000-0-000-0-000-3-333-3-333-5-555-5-555-5-555-5-555-5-555-5-555---------|
 e|---------------------------------------------------------------------------|
 B|---------------------------------------------------------------------------|
 G|------------------------------------55-77----------------------------------|
 D|-2-222-2-222-2-222-5-555-5-555-7-7--55-77----------------------------------|
 A|-2-222-2-222-2-222-5-555-5-555-7-7--33-77----------------------------------|
 E|-0-000-0-000-0-000-3-333-3-333-5-5-----------------------------------------|

 


 


 Pre-Bridge


 

 
 e|---------------------------------------------------------------------------|
 B|---------------------------------------------------------------------------|
 G|-5-555-4-444-7-777-9~------------------------------------------------------|
 D|-5-555-4-444-7-777-9~------------------------------------------------------|
 A|-3-333-2-222-5-555-7~------------------------------------------------------|
 E|---------------------------------------------------------------------------|

 


 


 Pre-Bridge 2


 

 
 e|---------------------------------------------------------------------------|
 B|---------------------------------------------------------------------------|
 G|-9999-7777-9999/-11-12-11-7------------------------------------------------|
 D|-xxxx-xxxx-xxxx/--x--x--x-x------------------------------------------------|
 A|-7777-5555-7777/--9-10--9-5------------------------------------------------|
 E|---------------------------------------------------------------------------|

 


 


 Bridge


 

 
 e|---------------------------------------------------------------------------|
 B|---------------------------------------------------------------------------|
 G|-99999999-55555555-222222222-77777777-88888888-----------------------------|
 D|-99999999-55555555-222222222-77777777-88888888-----x3----------------------|
 A|-77777777-33333333-000000000-55555555-66666666-----------------------------|
 E|---------------------------------------------------------------------------|

 


 xxxxxxxx xxxxxxxx xxxxxxxxx xxxxxxxx xxxxxxxx


 


 

 
 e|---------------------------------------------------------------------------|
 B|---------------------------------------------------------------------------|
 G|-99999-55555-22222-77777---------------------------------------------------|
 D|-99999-55555-22222-77777-9-999---------------------------------------------|
 A|-77777-33333-00000-55555-9-999-x-10----------------------------------------|
 E|-------------------------7-999---------------------------------------------|

 


 


 Ending


 

 
 e|---------------------------------------------------------------------------|
 B|---------------------------------------------------------------------------|
 G|-5-5555-5-5555-7-777-------------------9-----------------------------------|
 D|-5-5555-5-5555-7-777--7-5-7-5-7-5-3-2--9-----------------------------------|
 A|-3-3333-3-3333-5-555--7-5-7-5-7-5-3-2--7-----------------------------------|
 E|----------------------5-3-5-3-5-3-1-0--------------------------------------|

 


 


 Intro x2


 Pre-verse


 Verse 1


 Verse 2


 Chorus 1


 Chorus 2


 Intro x 2


 Verse 1


 Verse 3


 Chorus 1 x 2


 Pre Bridge


 Pre Bridge 2


 Bridge


 Chorus 1 x 3


 Ending


 


 2. Original Prankster


 


 "Knock down the walls, It's alive in you, Knock down the place, You're alone it's true"


 


 Intro 1


 

 
 e|---------------------------------------------------------------------------|
 B|---------------------------------------------------------------------------|
 G|---------------------------------------------------------------------------|
 D|---------------------7---------------------------------7-------------------|
 A|-0-0-3-0-0---0-0-3-0---0-3-0---0-0-3-0-0---5---0-0-3-0---0-0-5-5-3-5-3-----|
 E|---------------------------------------------------------------------------|

 


 


 Intro 2


 

 
 e|---------------------------------------------------------------------------|
 B|---------------------------------------------------------------------------|
 G|---------------------------------------------------------------------------|
 D|---------7-------------------------------7---------------------------------|
 A|-0-0-3-0---0-6-5-5-3-5-3--[-x3-]--0-0-3-0--0-6-5---------------------------|
 E|---------------------------------------------------------------------------|

 


 


 Verse


 

 
 e|---------------------------------------------------------------------------|
 B|---------------------------------------------------------------------------|
 G|-------------------------------------------99-999999-----------------------|
 D|---------7-----------------------55-555555-99-999999-----------------------|
 A|-0-0-3-0---0-6-5-5-3-5-3?[-x3-]--55-555555-77-777777-----------------------|
 E|---------------------------------33-333333---------------------------------|

 


 x x x x x x x x x x x x xxxxxx


 


 Pre-Chorus


 

 
 e|---------------------------------------------------------------------------|
 B|---------------------------------------------------------------------------|
 G|---7-9-8-7-7-5-7-5-----------------99999999--------------------------------|
 D|-7-7-9-8-7-7-5-7-5--x-3---5-555555-99999999--------------------------------|
 A|-7-5-7-6-5-5-3-5-3--------5-555555-77777777--------------------------------|
 E|-5------------------------3-333333-----------------------------------------|

 


 xxxxxx


 Chorus


 

 
 e|---------------------------------------------------------------------------|
 B|---------------------------------------------------------------------------|
 G|----7/12------12/7--12/7--12-12-12-12-13-----------------------------------|
 D|-77-7/12~-x3--12/7--12/7--12-12-12-12-13-----------------------------------|
 A|-77-5/10~-----10/5--12/5--10-10-10-10-11-----------------------------------|
 E|-55------------------------------------------------------------------------|

 


 


 Bridge


 

 
 e|---------------------------------------------------------------------------|
 B|---------------------------------------------------------------------------|
 G|---------------------------------------------------------------------------|
 D|---------7-----------------------------------------------------------------|
 A|-0-0-3-0---0-6-5-5-3-5-3--[x6]?(on the 5th time stop muting)----------------|
 E|---------------------------------------------------------------------------|

 


 x x x x x x x x x x x x


 


 

 
 e|---------------------------------------------------------------------------|
 B|---------------------------------------------------------------------------|
 G|-----------9\-9\-----------------------------------------------------------|
 D|-5-555555--9\-9\-----------------------------------------------------------|
 A|-5-555555--7\-7\-----------------------------------------------------------|
 E|-3-333333------------------------------------------------------------------|

 


 xxxxxx


 


 

 
 e|---------------------------------------------------------------------------|
 B|---------------------------------------------------------------------------|
 G|-12----12/7-1212121212-13-14-----------------------------------------------|
 D|-10-x7-12/7-1212121212-11-12-----------------------------------------------|
 A|-10----12/5-1010101010-11-12-----------------------------------------------|
 E|---------------------------------------------------------------------------|

 


 


 3. Want you Bad


 


 "I want you, All tattooed, I want you bad"


 


 Intro 1 Intro 2


 

 
 e|-------------|--|----------------------------------------------------------|
 B|-------------|--|----------------------------------------------------------|
 G|-9-------6-4-|--|--9-9-----------------------------------------------------|
 D|-9-99-77-6-4?|x4|--9-9x20--------------------------------------------------|
 A|-7-99-77-4-2-|--|--9-7-----------------------------------------------------|
 E|---77-55-----|--|----------------------------------------------------------|

 


 x


 Verse


 

 
 e|---------------------------|-------|-second time play----------------------|
 B|---------------------------|-------|---------------------------------------|
 G|-9-9-----6-6-----4-4----4--|-------|---------------------------------------|
 D|-9-9x12--6-6x12--4-4x12-4--|7-6-7-9|-xx7-xx6-xx7-xx9-----------------------|
 A|-7-7-----4-4-----2-2----2--|7-6-7-9|-xx7-xx6-xx7-xx9-----------------------|
 E|---------------------------|5-4-5-7|-xx5-xx4-xx5-xx7-----------------------|

 


 x x x


 


 Pre-Chorus


 

 
 e|---------------------------------------------------------------------------|
 B|---------------------------------------------------------------------------|
 G|-------------------6-6-6-6--9-9-9-9--------------------6-6-6-6--4-xxxx-----|
 D|-7-7-7-7--9-9-9-9--6-6-6-6--9-9-9-9--7-7-7-7--9-9-9-9--6-6-6-6--4-xxxx-----|
 A|-7-7-7-7--9-9-9-9--4-4-4-4--7-7-7-7--7-7-7-7--9-9-9-9--4-4-4-4--2-xxxx-----|
 E|-5-5-5-5--7-7-7-7--------------------5-5-5-5--7-7-7-7----------------------|

 


 


 Chorus


 

 
 e|---------------------------------------------------------|---2nd time play-|
 B|---------------------------------------------------------|-----------------|
 G|-9-9-9-9-9-9-9-9-6-6-6-6-6-6-6-6-4-4-4-4-4-4-4-4---------|-----------------|
 D|-9-9-9-9-9-9-9-9-6-6-6-6-6-6-6-6-4-4-4-4-4-4-4-4-7-6-7-9-|-xx7-xx6-xx7-xx9-|
 A|-7-7-7-7-7-7-7-7-4-4-4-4-4-4-4-4-2-2-2-2-2-2-2-2-7-6-7-9-|-xx7-xx6-xx7-xx9-|
 E|-------------------------------------------------5-4-5-7-|-xx5-xx4-xx5-xx7-|

 


 


 Bridge


 

 
 e|------7+--7+---------------------------------------------------------------|
 B|--------7+-----------------------------------------------------------------|
 G|-4~----------4~-------9~---4~---4~--------9~---4~--------------------------|
 D|-4~----------4~---7~--9~---4~---4~---7~---9~---4~--------------------------|
 A|-2~----------2~---7~--7~---2~---2~---7~---7~---2~--------------------------|
 E|------------------5~-----------------5~------------------------------------|

 


 


 Solo


 

 
 e|---------------------------------------------------------------------------|
 B|---------------------------------------------------------------------------|
 G|---------------------------------------------------------------------------|
 D|---------------------------------------------------------------------------|
 A|-6-6-66-6-66-6-66-6-4-4-44-44-44-44-4-2-2-222--7-7-777-6-6-66-6-6-66-66-6--|
 E|---------------------------------------------------------------------------|
 e|---------------------------------------------------------------------------|
 B|---------------------------------------------------------------------------|
 G|--------------------2-2-222-4-4-444-6-6-666-9-9-999------------------------|
 D|-4-4-44-4-44-4-44-4--------------------------------------------------------|
 A|---------------------------------------------------------------------------|
 E|---------------------------------------------------------------------------|

 


 


 Chorus 2


 

 
 e|---------------------------------------------------------------------------|
 B|---------------------------------------------------------------------------|
 G|-9-9-9-9-9-9-9-9-6-6-6-6-6-6-6-6-4-4-4-4-4-4-4-4------9~-------------------|
 D|-9-9-9-9-9-9-9-9-6-6-6-6-6-6-6-6-4-4-4-4-4-4-4-4--7~--9~-------------------|
 A|-7-7-7-7-7-7-7-7-4-4-4-4-4-4-4-4-2-2-2-2-2-2-2-2--7~--7~-------------------|
 E|--------------------------------------------------5~-----------------------|

 


 


 End on


 

 
 e|---------------------------------------------------------------------------|
 B|---------------------------------------------------------------------------|
 G|-9~------------------------------------------------------------------------|
 D|-9~------------------------------------------------------------------------|
 A|-7~------------------------------------------------------------------------|
 E|---------------------------------------------------------------------------|

 


 


 Intro 1 x4


 Intro 2


 Verse x 2


 Pre-Chorus


 Chorus


 Intro 2


 Verse


 Pre-Chorus


 Chorus


 Intro 1 x 4


 Bridge


 Solo


 Chorus


 Chorus 2


 Intro 1 x 3


 End on


 


 4. Million Miles Away


 


 "A Million Miles Away"


 


 Intro


 


 Guitar 1 - Plays this all through the Intro


 

 
 e|---------------------------------------------------------------------------|
 B|---------------------------------------------------------------------------|
 G|-----------------4---------------------------------------------------------|
 D|-----4-----2-----------2-----2h4-------------------------------------------|
 A|-2-2---2-2---2-2---2-2---2-2-----------------------------------------------|
 E|---------------------------------------------------------------------------|

 


 x x x x x x x x x x


 


 Guitar 2 Part I


 

 
 e|---------------------------------------------------------------------------|
 B|---------------------------------------------------------------------------|
 G|------99-9\----------------------------------------------------------------|
 D|-7-77-99-9\----------------------------------------------------------------|
 A|-7-77-77-7\----------------------------------------------------------------|
 E|-5-55----------------------------------------------------------------------|

 


 


 Part II


 

 
 e|---------------------------------------------------------------------------|
 B|---------------------------------------------------------------------------|
 G|------2-2/4--4/7--7/9---9/-------------------------------------------------|
 D|-4-4--2-2/4--4/7--7/9---9/-------------------------------------------------|
 A|-4-4--0-0/2--2/5--5/7---7/-------------------------------------------------|
 E|-2-2/----------------------------------------------------------------------|

 


 


 Part III


 

 
 e|---------------------------------------------------------------------------|
 B|---------------------------------------------------------------------------|
 G|--11------------999999-----------------------------------------------------|
 D|--11-x12--77777-999999-----------------------------------------------------|
 A|---9------77777-777777-----------------------------------------------------|
 E|----------55555------------------------------------------------------------|

 


 


 Verse


 

 
 e|---------------------------------------------------------------------------|
 B|---------------------------------------------------------------------------|
 G|---------------------------------------------------------------------------|
 D|-4-444444444444-4/7-7777-7/14-14141414\------------------------------------|
 A|-4-444444444444-4/7-7777-7/14-14141414\------------------------------------|
 E|-2-222222222222-2/5-5555-5/12-12121212\------------------------------------|

 


 xxxxxxxxxxxxx xxxx xxxxxxxx


 


 Pre-Chorus


 

 
 e|------------------------|------|-------------------------------------------|
 B|------------------------|------|-------------------------------------------|
 G|-4-44--6-66--7-77--6-66-|-9----|-9-------9999------------------------------|
 D|-x-xx--x-xx--x-xx--x-xx-|-9-x8-|-9-9-x26-9999------------------------------|
 A|-2-22--4-44--5-55--4-44-|-7----|-7-7-----7777------------------------------|
 E|------------------------|------|-------------------------------------------|

 


 x xxxx


 Chorus


 

 
 e|---------------------------------------------------------------------------|
 B|---------------------------------------------------------------------------|
 G|--11------------999999-----------------------------------------------------|
 D|--11-x12--77777-999999-----------------------------------------------------|
 A|---9------77777-777777-----------------------------------------------------|
 E|----------55555------------------------------------------------------------|

 


 


 Post-Chorus


 

 
 e|---------------------------------------------------------------------------|
 B|---------------------------------------------------------------------------|
 G|----------2-2------4-4------7777--9999-------------------------------------|
 D|-4-4------2-2-x14--4-4-x14--7777--9999-------------------------------------|
 A|-4-4-x14--0-0------2-2------5555--7777-------------------------------------|
 E|-2-2/----------------------------------------------------------------------|

 


 x x x


 


 Solo


 


 Guitar 1


 

 
 e|-------------------------|--|-------------------------------|--|-----------|
 B|-------------------------|--|-------------------------------|--|-----------|
 G|-16b-14-11---16b--14/16--|--|-------------------------------|--|-----------|
 D|-16b-14-11---16b--14/16--|x2|-19\-16-16-1616-14-16/19-19-19-|x3|-----------|
 A|-------------------------|--|-------------------------------|--|-----------|
 E|-------------------------|--|-------------------------------|--|-----------|
 e|---------------------------------------------------------------------------|
 B|---------------------------------------------------------------------------|
 G|---------------------------------------------------------------------------|
 D|-19b?21b-18b-14b-----------------------------------------------------------|
 A|---------------------------------------------------------------------------|
 E|---------------------------------------------------------------------------|

 


 


 Guitar 2


 

 
 e|---------------------------------------------------------------------------|
 B|---------------------------------------------------------------------------|
 G|--11------------999999-----------------------------------------------------|
 D|--11-x12--77777-999999-----------------------------------------------------|
 A|---9------77777-777777-----------------------------------------------------|
 E|----------55555------------------------------------------------------------|
 e|---------------------------------------------------------------------------|
 B|---------------------------------------------------------------------------|
 G|-------2-----4-----7------9------------------------------------------------|
 D|-4-----2-x8--4-x8--7-x4---9-x4---------------------------------------------|
 A|-4-x8--0-----2-----5------7------------------------------------------------|
 E|-2-------------------------------------------------------------------------|

 


 


 End On


 

 
 e|---------------------------------------------------------------------------|
 B|---------------------------------------------------------------------------|
 G|---------------------------------------------------------------------------|
 D|-4~------------------------------------------------------------------------|
 A|-4~------------------------------------------------------------------------|
 E|-2~------------------------------------------------------------------------|

 


 


 Intro Guitar 1


 Intro Guitar 2 Part I


 Intro Guitar 1


 Intro Guitar 2 part I


 Intro Guitar 1 & Intro Guitar Part II


 Intro Guitar 1 & Intro Guitar Part III x 2


 Verse x 4


 Pre-Chorus


 Chorus x 2


 Post-Chorus & Intro Guitar 1


 Intro Guitar 1 & Intro Guitar Part III x 2


 Verse x 4


 Pre-Chorus


 Chorus x 2


 Post-Chorus & Intro Guitar 1


 Solo


 Pre-Chorus


 Chorus x 4


 Chorus & Intro Guitar 1 x 4


 End On


 


 5. Dammit, I Changed Again


 


 "This time I turn around, Things have changed, Now I don't feel the same, yeah,


 Start a fight, I can't defend, One more time, Dammit, I changed again"


 


 Intro


 


 Guitar 2


 

 
 e|---------------------------------------------------------------------------|
 B|---------------------------------------------------------------------------|
 G|---------------------------------------------------------------------------|
 D|-3-----------\\\\\\\\\\\\--------------------------------------------------|
 A|-3-----------\\\\\\\\\\\\\-


Important: The song above is NOT stored on the Chordie server. The original song is hosted at www.guitaretab.com. Chordie works as a search engine and provides on-the-fly formatting. Chordie does not index songs against artists'/composers' will. To remove this song please click here.

This song is displayed as text-only. Transposing and tuning is only available for chordpro-songs.
Rate #1 of 1 versions

Login - add to songbook

SHARE PAGE  




You need to log in to post comments