Guitar Tabs, Chords and Lyrics
Login is temporarily disabled for some users. Do not panic. Will be back in an hour or two. DO NOT REREGISTER!!


Slim Pickens Does the Right Thing and Rides the Bomb to Hell  The Offspring

As recorded by The Offspring
(From the 2012 Album DAYS GO BY)
Transcribed by Whoabot
Words and Music by The Offspring
Arranged by The Offspring
Gtr I (E A D G B E) - 'Untitled'
Gtr II (E A D G B E) - 'Untitled'
Intro
Q=149
N.C. D5 Bb5 F5 C5
[2/4] Gtr I[4/4]
[B] [E] [E] [E] [E] [E] [E] [E] [E] [E] [E] [E] [E] [E] [E] [E] [E]  
 
 |------||-------------------|-----------------------|
 |------||-------------------|-----------------------|
 |------||-7-7-7---------/10-|-10-10-10--------------|
 |------||-7-7-7-0-8-8-0-/10-|-10-10-10-0-10-10-10-0-|
 |------||-5-5-5-0-8-8-0--/8-|--8--8--8-0-10-10-10-0-|
 |------||---------6-6-------|-------------8--8--8---|

[D5] [Bb5] [F5] [C5]  
[E] [E] [E] [E] [E] [E] [E] [E] [E] [E] [E] [E] [E] [E] [E] [E]  
 
 |-------------------|------------------------||
 |-------------------|------------------------||
 |-7-7-7---------/10-|-10-10-10---------------||
 |-7-7-7-0-8-8-0-/10-|-10-10-10-0-10-10-10-0--||
 |-5-5-5-0-8-8-0--/8-|--8--8--8-0-10-10-10-0--||
 |---------6-6-------|-------------8--8--8----||

Verse
[D5] [Bb5] [F5] [C5] [D5] [Bb5]  
 
 PM---------------------------------------------------------

[E] [E] [E] [E] [E] [E] [E] [E] [E] [E] [E] [E] [E] [E] [E] [E] [E] [E] [E] [E] [E] [E] [E] [E]  
 
 ||------------------|-----------------------|-----------------|
 ||o-----------------|-----------------------|-----------------|
 ||------------------|-----------------------|-----------------|
 ||--7-7-7-x-------x-|-10-10-10-x----------x-|-7-7-7-x-------x-|
 ||o-5-5-5-0-8-8-8-0-|--8--8--8-0-10-10-10-0-|-5-5-5-0-8-8-8-0-|
 ||----------6-6-6---|-------------8--8--8---|---------6-6-6---|

1. 2.
[F5] [C5] [F5] [C5]  
 
 -------------------------------|

[E] [E] [E] [E] [E] [E] [E] [E] [E] [E] [E] [E] [E] [E] [E] [E]  
 
 |-------------------------||--------------------------------||
 |------------------------o||--------------------------------||
 |-------------------------||-------10-10\-5-----------------||
 |-10-10-10-x--------------||-10-10-10-10\-5-----------------||
 |--8--8--8-0-10-10-10-10-o||--8--8--8--8\-3--x---x---x------||
 |-------------8--8--8--8--||--------------------------------||

horus
[D5] [Bb5] [F5] [C5]  
[E] [E] [E] [E] [E] [E] [E] [E] [E] [E] [E] [E] [E] [E] [E] [E]  
 
 |-------------------|-----------------------|
 |-------------------|-----------------------|
 |-7-7-7---------/10-|-10-10-10--------------|
 |-7-7-7-0-8-8-0-/10-|-10-10-10-0-10-10-10-0-|
 |-5-5-5-0-8-8-0--/8-|--8--8--8-0-10-10-10-0-|
 |---------6-6-------|-------------8--8--8---|

[D5] [Bb5] [F5] [C5]  
[E] [E] [E] [E] [E] [E] [E] [E] [E] [E] [E] [E] [E] [E] [E] [E]  
 
 ||--------------------|------------------------||
 ||o-------------------|-----------------------o||
 ||--7-7-7---------/10-|-10-10-10---------------||
 ||--7-7-7-0-8-8-0-/10-|-10-10-10-0-10-10-10-0--||
 ||o-5-5-5-0-8-8-0--/8-|--8--8--8-0-10-10-10-0-o||
 ||----------6-6-------|-------------8--8--8----||

[Bb5] [C5]  
 
 PM--------| PM----------------

Q E E E E E E E a E E E E E E E
 
 |----------------|----------------------------|
 |----------------|----------------------------|
 |----------------|----------------------------|
 |-8--------------|----------------------------|
 |-8--8-8-8-8-8-8-|-8-(8)s10-10-10-10-10-10-10-|
 |-6--6-6-6-6-6-6-|-6-(6)s=8--8--8--8--8--8--8-|

[Bb5] [C5]  
 
 ---------------| PM------------|

[E] [E] [E] [E] [E] [E] [E] [E] [E] [a] [E] [E] [E] [E] [E] [E] [E]  
 
 |-----------------|------------------------------|
 |-----------------|------------------------------|
 |-----------------|------------------------------|
 |-----------------|------------------------------|
 |-8-8-8-8-8-8-8-8-|-8-(8)s10-10-10-10-10-10-10---|
 |-6-6-6-6-6-6-6-6-|-6-(6)s=8--8--8--8--8--8--8---|

[Bb5]PM--|[C5]
[E] [E] [E] [E] [E] [E] [E] [E] [E] [a] [E] [E] [E] [E] [E] [E] [E]  
 
 |-----------------|----------------------------|
 |-----------------|----------------------------|
 |-----------------|----------------------------|
 |-----------------|----------10-10-10-10-10-10-|
 |-8-8-8-8-8-8-8-8-|-8-(8)s10-10-10-10-10-10-10-|
 |-6-6-6-6-6-6-6-6-|-6-(6)s=8--8--8--8--8--8--8-|

[D5]Q E [C5D5]E Q E [C5]E [D5]E E E [C5D5]E E E E E
 
 |---------------|-------------------------||
 |---------------|-------------------------||
 |-7--7-5-7--7-5-|-7-7-7-5-7--x---x---x----||
 |-7--7-5-7--7-5-|-7-7-7-5-7--x---x---x----||
 |-5--5-3-5--5-3-|-5-5-5-3-5---------------||
 |---------------|-------------------------||

Verse
[D5]E E E E [Bb5]Q E [F5] E E E E E [C5] Q E E
 
 ||-------------------|---------------------|
 ||o------------------|---------------------|
 ||--7-7-7--------/10-|-10-10-10------------|
 ||--7-7-7-0-8----/10-|-10-10-10-0-10--10-0-|
 ||o-5-5-5-0-8--8--/8-|--8--8--8-0-10--10-0-|
 ||----------6--6-----|-------------8---8---|

[D5]E E E E [Bb5]Q E [F5] E E E E E [C5] Q E E
 
 |------------------|-----------------------||
 |------------------|----------------------o||
 |-7-7-7--------/10-|-10-10-10--------------||
 |-7-7-7-0-8----/10-|-10-10-10-0-10--10-0---||
 |-5-5-5-0-8--8--/8-|--8--8--8-0-10--10-0--o||
 |---------6--6-----|-------------8---8-----||

[D5] [Bb5] [F5] [C5] [D5] [Bb5]  
 
 PM---------------------------------------------------------

[E] [E] [E] [E] [E] [E] [E] [E] [E] [E] [E] [E] [E] [E] [E] [E] [E] [E] [E] [E] [E] [E] [E] [E]  
 
 ||------------------|-----------------------|-----------------|
 ||o-----------------|-----------------------|-----------------|
 ||------------------|-----------------------|-----------------|
 ||--7-7-7-x-------x-|-10-10-10-x----------x-|-7-7-7-x-------x-|
 ||o-5-5-5-0-8-8-8-0-|--8--8--8-0-10-10-10-0-|-5-5-5-0-8-8-8-0-|
 ||----------6-6-6---|-------------8--8--8---|---------6-6-6---|

1. 2.
[F5] [C5] [F5] [C5]  
 
 ------------------------------------------|

[E] [E] [E] [E] [E] [E] [E] [E] [E] [E] [E] [E] [E] [E] [E] [E]  
 
 |-------------------------||---------------------------||
 |------------------------o||---------------------------||
 |-------------------------||---------------------------||
 |-10-10-10-x--------------||-10-10-10-x-------10-10\---||
 |--8--8--8-0-10-10-10-10-o||--8--8--8-0-10-10-10-10\---||
 |-------------8--8--8--8--||-------------8--8--8--8\---||

Pre-Chorus
[G5]W Q Q Q Q [Bb5]E E E E E E E [C5]E E E E E E E E E
 
 |----------|-------------|-----------------|-------------------------||
 |----------|-------------|-----------------|-------------------------||
 |----------|-------------|-3-3-3-3-3-3-3S5-|-5-5-5-5-5--x---x---x----||
 |-5--------|-5--5--5--5--|-3-3-3-3-3-3-3S5-|-5-5-5-5-5--x----x-------||
 |-5--------|-5--5--5--5--|-1-1-1-1-1-1-1S3-|-3-3-3-3-3---------------||
 |-3--------|-3--3--3--3--|-----------------|-------------------------||

Chorus
[D5] [Bb5] [F5] [C5]  
[E] [E] [E] [E] [E] [E] [E] [E] [E] [E] [E] [E] [E] [E] [E] [E]  
 
 |-------------------|-----------------------|
 |-------------------|-----------------------|
 |-7-7-7---------/10-|-10-10-10--------------|
 |-7-7-7-0-8-8-0-/10-|-10-10-10-0-10-10-10-0-|
 |-5-5-5-0-8-8-0--/8-|--8--8--8-0-10-10-10-0-|
 |---------6-6-------|-------------8--8--8---|

[D5] [Bb5] [F5] [C5]  
[E] [E] [E] [E] [E] [E] [E] [E] [E] [E] [E] [E] [E] [E] [E] [E]  
 
 ||--------------------|------------------------||
 ||o-------------------|-----------------------o||
 ||--7-7-7---------/10-|-10-10-10---------------||
 ||--7-7-7-0-8-8-0-/10-|-10-10-10-0-10-10-10-0--||
 ||o-5-5-5-0-8-8-0--/8-|--8--8--8-0-10-10-10-0-o||
 ||----------6-6-------|-------------8--8--8----||

[Bb5] [C5]  
 
 PM--------| PM----------------

Q E E E E E E E a E E E E E E E
 
 |----------------|----------------------------|
 |----------------|----------------------------|
 |----------------|----------------------------|
 |-8--------------|----------------------------|
 |-8--8-8-8-8-8-8-|-8-(8)s10-10-10-10-10-10-10-|
 |-6--6-6-6-6-6-6-|-6-(6)s=8--8--8--8--8--8--8-|

[Bb5] [C5]  
 
 ---------------| PM------------|

[E] [E] [E] [E] [E] [E] [E] [E] [E] [a] [E] [E] [E] [E] [E] [E] [E]  
 
 |-----------------|------------------------------|
 |-----------------|------------------------------|
 |-----------------|------------------------------|
 |-----------------|------------------------------|
 |-8-8-8-8-8-8-8-8-|-8-(8)s10-10-10-10-10-10-10---|
 |-6-6-6-6-6-6-6-6-|-6-(6)s=8--8--8--8--8--8--8---|

[Bb5]PM--|[C5]
[E] [E] [E] [E] [E] [E] [E] [E] [E] [a] [E] [E] [E] [E] [E] [E] [E]  
 
 |-----------------|----------------------------|
 |-----------------|----------------------------|
 |-----------------|----------------------------|
 |-----------------|----------10-10-10-10-10-10-|
 |-8-8-8-8-8-8-8-8-|-8-(8)s10-10-10-10-10-10-10-|
 |-6-6-6-6-6-6-6-6-|-6-(6)s=8--8--8--8--8--8--8-|

[D5]Q E [C5D5]E Q E [C5]E [D5]E E E [C5D5]E E E E E
 
 |---------------|-------------------------||
 |---------------|-------------------------||
 |-7--7-5-7--7-5-|-7-7-7-5-7--x---x---x----||
 |-7--7-5-7--7-5-|-7-7-7-5-7--x---x---x----||
 |-5--5-3-5--5-3-|-5-5-5-3-5---------------||
 |---------------|-------------------------||

uitar Solo
[D5] E E E E [Bb5] Q E [F5] E E E E E [C5] Q E E
 
 |-------------------------|-----------------------|
 |-------------------------|-----------------------|
 |---7--7--7-----------/10-|-10-10-10--------------|
 |---7--7--7--0--8-----/10-|-10-10-10-0---10--10-0-|
 |---5--5--5--0--8---8--/8-|--8--8--8-0---10--10-0-|
 |---------------6---6-----|---------------8---8---|

|
| Gtr II
| ~~
| E E E E Q E E E E E E a Q E E
 
 |-------------------------|-----------------------|
 |-------------------------|----------8------------|
 |-----------------------9-|-10-10-10---7h=9---9-9-|
 |-/12-12-12-10-12--12-----|-----------------------|
 |-------------------------|-----------------------|
 |-------------------------|-----------------------|

[D5] E E E E [Bb5] Q E [F5] E E E E E [C5] Q E E
 
 |-------------------------|--------------------------|
 |-------------------------|--------------------------|
 |----7-7--7-----------/10-|---10-10-10---------------|
 |----7-7--7--0--8-----/10-|---10-10-10--0-10--10--0--|
 |----5-5--5--0--8---8--/8-|----8--8--8--0-10--10--0--|
 |---------------6---6-----|----------------8---8-----|

|
| a E E E E Q E E a E E E E Q Q
 
 |-------------------------|--------------------------|
 |-------------------------|--------------------------|
 |-9h10-9----------------9-|-9h10--9-----------14\----|
 |--------12-10-12--12-----|---------12-10-12---------|
 |-------------------------|--------------------------|
 |-------------------------|--------------------------|

[D5] E E E E [Bb5] Q E [F5] E E E E E [C5] Q E E
 
 |-------------------------|-----------------------|
 |-------------------------|-----------------------|
 |---7--7--7-----------/10-|-10-10-10--------------|
 |---7--7--7--0--8-----/10-|-10-10-10-0---10--10-0-|
 |---5--5--5--0--8---8--/8-|--8--8--8-0---10--10-0-|
 |---------------6---6-----|---------------8---8---|

|
| ~~
| E E E E Q E E E E E E a Q E E
 
 |-------------------------|-----------------------|
 |-------------------------|----------8------------|
 |-----------------------9-|-10-10-10---7h=9---9-9-|
 |-/12-12-12-10-12--12-----|-----------------------|
 |-------------------------|-----------------------|
 |-------------------------|-----------------------|

[D5] E E E E [Bb5] Q E [F5] E E E E E [C5] Q E E
 
 |-------------------------|-------------------------||
 |-------------------------|-------------------------||
 |----7-7--7-----------/10-|---10-10-10--------------||
 |----7-7--7--0--8-----/10-|---10-10-10--0-10--10-0--||
 |----5-5--5--0--8---8--/8-|----8--8--8--0-10--10-0--||
 |---------------6---6-----|----------------8---8----||

|
| a E E E E Q E E a E E E E Q Q
 
 |-------------------------|-------------------------||
 |-------------------------|-------------------------||
 |-9h10-9----------------9-|-9h10--9-----------------||
 |--------12-10-12--12-----|---------12-10-12--12----||
 |-------------------------|-------------------------||
 |-------------------------|-------------------------||

Pre-Chorus
[G5]W Q Q Q Q [Bb5]E E E E E E E [C5]E E E E E E E E E
 
 |----------|-------------|-----------------|-------------------------||
 |----------|-------------|-----------------|-------------------------||
 |----------|-------------|-3-3-3-3-3-3-3S5-|-5-5-5-5-5--x---x---x----||
 |-5--------|-5--5--5--5--|-3-3-3-3-3-3-3S5-|-5-5-5-5-5--x----x-------||
 |-5--------|-5--5--5--5--|-1-1-1-1-1-1-1S3-|-3-3-3-3-3---------------||
 |-3--------|-3--3--3--3--|-----------------|-------------------------||

Out-Chorus
[D5] [Bb5] [F5] [C5]  
[E] [E] [E] [E] [E] [E] [E] [E] [E] [E] [E] [E] [E] [E] [E] [E]  
 
 ||--------------------|-----------------------|
 ||o-------------------|-----------------------|
 ||--7-7-7---------/10-|-10-10-10--------------|
 ||--7-7-7-0-8-8-0-/10-|-10-10-10-0-10-10-10-0-|
 ||o-5-5-5-0-8-8-0--/8-|--8--8--8-0-10-10-10-0-|
 ||----------6-6-------|-------------8--8--8---|

[D5]E E E E [Bb5]E E E [F5] E E E E E [C5] E E E E 3x
 
 |-------------------|-------------------------||
 |-------------------|------------------------o||
 |-7-7-7---------/10-|-10-10-10----------------||
 |-7-7-7-0-8-8-0-/10-|-10-10-10-0-10-10-10-0---||
 |-5-5-5-0-8-8-0--/8-|--8--8--8-0-10-10-10-0--o||
 |---------6-6-------|-------------8--8--8-----||

[Bb5] [C5]  
 
 PM--------| PM----------------

Q E E E E E E E a E E E E E E E
 
 |----------------|----------------------------|
 |----------------|----------------------------|
 |----------------|----------------------------|
 |-8--------------|----------------------------|
 |-8--8-8-8-8-8-8-|-8-(8)s10-10-10-10-10-10-10-|
 |-6--6-6-6-6-6-6-|-6-(6)s=8--8--8--8--8--8--8-|

[Bb5] [C5]  
 
 ---------------| PM------------|

[E] [E] [E] [E] [E] [E] [E] [E] [E] [a] [E] [E] [E] [E] [E] [E] [E]  
 
 |-----------------|------------------------------|
 |-----------------|------------------------------|
 |-----------------|------------------------------|
 |-----------------|------------------------------|
 |-8-8-8-8-8-8-8-8-|-8-(8)s10-10-10-10-10-10-10---|
 |-6-6-6-6-6-6-6-6-|-6-(6)s=8--8--8--8--8--8--8---|

[Bb5]PM--|[C5]
[E] [E] [E] [E] [E] [E] [E] [E] [E] [a] [E] [E] [E] [E] [E] [E] [E]  
 
 |-----------------|----------------------------|
 |-----------------|----------------------------|
 |-----------------|----------------------------|
 |-----------------|----------10-10-10-10-10-10-|
 |-8-8-8-8-8-8-8-8-|-8-(8)s10-10-10-10-10-10-10-|
 |-6-6-6-6-6-6-6-6-|-6-(6)s=8--8--8--8--8--8--8-|

[D5] [C5] [D5] [C5]  
[E] [E] [E] [E] [E] [E] [E] [E] [E] [E] [E] [E] [E] [E] [E] [E]  
 
 |-----------------|-----------------|
 |-----------------|-----------------|
 |-7-7-7-7-7-7-x-5-|-7-7-7-7-7-7-x-5-|
 |-7-7-7-7-7-7-x-5-|-7-7-7-7-7-7-x-5-|
 |-5-5-5-5-5-5-x-3-|-5-5-5-5-5-5-x-3-|
 |-----------------|-----------------|

[D5]E E E E E E E [C5]E [D5]E E E [C5D5]E q Q W W
 
 |-----------------|---------------|----------|------*|
 |-----------------|---------------|----------|------*|
 |-7-7-7-7-7-7-x-5-|-7-7-7-5-7-----|----------|------*|
 |-7-7-7-7-7-7-x-5-|-7-7-7-5-7-----|----------|------*|
 |-5-5-5-5-5-5-x-3-|-5-5-5-3-5-----|----------|------*|
 |-----------------|---------------|----------|------*|


Important: The song above is NOT stored on the Chordie server. The original song is hosted at www.guitaretab.com. Chordie works as a search engine and provides on-the-fly formatting. Chordie does not index songs against artists'/composers' will. To remove this song please click here.

Text color:
Chord color:
Chord grids: 
Font size:    
Page size: 

B Bb5 C5 D5 E F5 G5
Rate #1 of 4 versions

Login - add to songbook

SHARE PAGE  




You need to log in to post comments