Guitar Tabs, Chords and Lyrics
Login is temporarily disabled for some users. Do not panic. Will be back in an hour or two. DO NOT REREGISTER!!


Don't Pick It Up  The Offspring

tabbed by muddymascot
this is fucking easy, but also fucking great
chords used:
[F#2] [F#1] [E] [B] [A#] [C#]  
 
 e---- --- --- --- --- ----
 b---- --- --- --- --- ----
 g-11- --- -9- --- --- ----
 d-11- -4- -9- -9- -8- -11-
 a--9- -4- -7- -9- -8- -11-
 e---- -2- --- -7- -6- --9-

intro
[F#1]  
F#1 F#1 A# C# F#2 (this part is also played later on-
you will hear it)
main riff (this is the verse and the chorus)
[F#2] [E] [B] [B]  
riff played over main riff
 
 e--------------------------|
 b--------------------------|
 g--------------------------|
 d--------------------------|
 a-9-997-77-6-7-6--|
 e--------------------------|

end of chorus and song (you're gonna be bummed...)
[F#2] [E] [BBBB]  
don't pick it up pick it up pick it up
drums
e----
[b----]g----
[d----]  
[a-7b-]e----
that's it. should be perfect, i think
maybe a little mistake in the riff, which is played over the main riff

Important: The song above is NOT stored on the Chordie server. The original song is hosted at www.guitaretab.com. Chordie works as a search engine and provides on-the-fly formatting. Chordie does not index songs against artists'/composers' will. To remove this song please click here.

Text color:
Chord color:
Chord grids: 
Font size:    
Page size: 

A# B C# E F#2
Rate #1 of 1 versions

Login - add to songbook

SHARE PAGE  




You need to log in to post comments