Guitar Tabs, Chords and Lyrics
Server problems seems to be fixed. Chordie has been experiencing problems with songs disappearing. These issues now seems to be fixed, but still verifying the fix. If you find anything strange, please email admin@chordie.com.


All You  Oh No Not Stereo

Song: All You
Album: 003
Tabbed by: gustavoaraujo999@hotmail.com
**Only play the bass notes in the first 3 chords.
Chords used:
D# - x688xx (actually a D#5)
A# - 688566
Cm - x35543 / 81010888
[G#] [-] [466544]  
[G#m-]B - [466444]799877
[Intro] 
 
 e|-----------------------------------------------------------------------------|
 B|-----------------------------------------------------------------------------|
 G|-----8-----------8-----------------------------8--------8--------------------|
 D|8--8----8---8--8----------8-----------8--6---6---6--6--6--------9----------9-|
 A|6--6----6---6--6-----8---8----8---8--8---8---8---8--8--8---9---9---9---9--9--|
 E|---------------------6---6----6---6--6---------------------7---7---7---7--7--|

[Verse 1] 
[D#] Shes got everything she [A#]needs
Cm G#(hold) G#m(hold)
But the gauge is reading empty again (whoa whoa)
[D#]You always call it as you [A#]see
And youll do it all [Cm]day
G#(hold) G#m(hold)
Because its what you believe
[Cborus 1] 
[D#] The way that you [A#]speak
Like you know its so [Cm]true
Your despe[G#]ration is[G#m] all you
[D#] [A#] (Despe[Cm]ration..[G#].)
 
 e|-----------------------------------------------------------11\----|
 B|--------------------------------------9-8--6-8-6-----------11\----|
 G|-88888888-77777777-88888888-77777777-------------9-8~-------------|
 D|------------------------------------------------------------------|
 A|------------------------------------------------------------------|
 E|------------------------------------------------------------------|

[Verse 2] 
[D#]So now youre everything she [A#]needs
The conversations c[Cm]hanging
And all your friends are s[G#]aying they t[G#m]old you before
[D#]You call it as you [A#]see... whoa whoa w[Cm]hoa
When [G#]all that you need is [G#m]walking out the door
[Cborus 2] 
[D#] The way that you [A#]speak
Like you know its so [Cm]true
Your despe[G#]ration is[G#m] all you
[D#] You continue to [A#]say
How you never get t[Cm]hrough
You take the c[G#]redit cause its [G#m]all you
[D#] [A#] [B] [D#]  
[Outro] 
[D#]So now youre everything she [A#]needs
The conversations c[Cm]hanging
And all your friends are s[G#]aying they t[G#m]old you before
[D#]You call it as you [A#]see... whoa whoa w[Cm]hoa
When [G#]all that you need is[G#m] walking out the door[D#]

Important: The song above is NOT stored on the Chordie server. The original song is hosted at www.guitaretab.com. Chordie works as a search engine and provides on-the-fly formatting. Chordie does not index songs against artists'/composers' will. To remove this song please click here.

Text color:
Chord color:
Chord grids: 
Font size:    
Page size: 

A# B Cm D# G# G#m
Rate #1 of 3 versions

Jango Player

Login - add to songbook

SHARE PAGE  



You need to log in to post comments