Guitar Tabs, Chords and Lyrics
Major upgrade!! After one year development the new version of Chordie is now online! Please give feedback.


Crash the Party   OK Go

 
 e--5------4------9-------8-------|
 B--5------5------10------10------|
 G--6------6------11------10------|
 D--7-(x6)-6-(x6)-11-(x6)-10-(x6)-|
 A--7------4------9-------8-------|
 E--5-----------------------------|
 e--5------4------0------3------2------|
 B--5------5------0------5------4------|
 G--6------6------1------5------4------|
 D--7-(x6)-6-(x6)-2-(x6)-5-(x3)-4-(x3)-|
 A--7------4------2------3------2------|
 E--5-------------0--------------------|

 


 


 Verse 1:


 


 Guitar 1


 


 

 
 e------------------------------------|
 b------------------------------------|
 G---------------------------5-(x6)---|
 D--7-(x18)--5-(x6)--7-(x18)----------|
 A------------------------------------|
 E------------------------------------|
 e--------------------------------------|
 b--------------------------------------|
 G---------------------------7b8*-(x12)-|
 D--7-(x18)--5-(x6)--7-(x12)------------|
 A--------------------------------------|
 E--------------------------------------|

 


 


 *Really slow bend over the 12 hits


 


 Guitar 2 - Comes in just after 'To Hell with Chocolates and Picnics'


 


 

 
 e--3--4--5--|
 B--3--4--5--|
 G--4--5--6--|
 D--5--6--7--|
 A--5--6--7--|
 E--3--4--5--|

 


 


 Pre-Chorus:


 


 Strum Chords


 


 

 
 e--2---4---5---5-----2---4---5--7-|
 B--3---5---7---7-----3---5---7--9-|
 G--4---6---7---7-----4---6---7--9-|
 D--4---6---7---7-----4---6---7--9-|
 A--2---4---5---5-----2---4---5--7-|
 E---------------------------------|

 


 


 Guitar 2


 


 

 
 e-------------|
 B-------------|

 


 G--7b9-(x12)--| x8


 

 
 D-------------|
 A-------------|
 E-------------|

 


 


 Chorus:


 


 

 
 e--5------4------9-------8-------|
 B--5------5------10------10------|
 G--6------6------11------10------|
 D--7-(x6)-6-(x6)-11-(x6)-10-(x6)-|
 A--7------4------9-------8-------|
 E--5-----------------------------|
 e--5------4------0------3------2------|
 B--5------5------0------5------4------|
 G--6------6------1------5------4------|
 D--7-(x6)-6-(x6)-2-(x6)-5-(x3)-4-(x3)-|
 A--7------4------2------3------2------|
 E--5-------------0--------------------|

 


 


 Repeat


 


 Break:


 


 

 
 e----------|
 B----------|

 


 G--5-(x24)-|


 

 
 D----------|
 A----------|
 E----------|

 


 


 Guitar 1


 


 

 
 e-----------------------------------------|
 B-----------------------------------------|
 G--555-----555-----555-5b6b5--555---------|
 D------777-----777----------------777-----| x3
 A-----------------------------------------|
 E-----------------------------------------|

 


 


 Guitar 2 - Comes in after guitar 1 plays once


 


 

 
 e-----------------------------------|
 B--888-555-888-555-888-555-888-555--|
 G-----------------------------------|
 D-----------------------------------| x2
 A-----------------------------------|
 E-----------------------------------|

 


 


 Verse 2:


 


 

 
 e-5----------3--4--5\-------------3--4--|
 B-5----------3--4--5\-------------3--4--|
 G-6----------4--5--6\-------------4--5--|
 D-7----------5--6--7\-------------5--6--|
 A-7----------5--6--7\-------------5--6--|
 E-5----------3--4--5\-------------3--4--|

 


 


 No second guitar part


 


 Pre-Chorus:


 


 Strum Chords


 


 

 
 e--2---4---5---5-----2---4---5--7-|
 B--3---5---7---7-----3---5---7--9-|
 G--4---6---7---7-----4---6---7--9-|
 D--4---6---7---7-----4---6---7--9-|
 A--2---4---5---5-----2---4---5--7-|
 E---------------------------------|

 


 


 Guitar 2


 


 

 
 e-------------|
 B-------------|

 


 G--7b9-(x12)--| x8


 

 
 D-------------|
 A-------------|
 E-------------|


Important: The song above is NOT stored on the Chordie server. The original song is hosted at www.guitaretab.com. Chordie works as a search engine and provides on-the-fly formatting. Chordie does not index songs against artists'/composers' will. To remove this song please click here.

This song is displayed as text-only. Transposing and tuning is only available for chordpro-songs.
Rate #1 of 2 versions

Login - add to songbook

SHARE PAGE  




You need to log in to post comments