Guitar Tabs, Chords and Lyrics
Major upgrade!! After one year development the new version of Chordie is now online! Please give feedback.


No Sign of Life  OK Go

'No Sign of Life' Guitar Tab by 'OK GO'.
h - hammer on
bu - bend up
bd - bend down
/ - slide down
\ - slide up
INTRO:
Chords: D E G A (Repeat and play this through verse)
VERSE:
 
 E-----------------------------------------|
 B-----6-6-6-6-----6-6-8bu108bu108bu10bd8--| (repeat through verse)
 G--5h7-7-7-7---5h7-7-7--------------------|
 D-----------------------------------------|
 A-----------------------------------------|
 E-----------------------------------------|

LINK (verse to chorus):
 
 E----------------------------------------------------------|
 B-----6-6-6-6-----6-6-8bu108bu108bu108bu108bu10(hold)bd8~~-|
 G--5h7-7-7-7---5h7-7-7-------------------------------------|
 D----------------------------------------------------------|
 A----------------------------------------------------------|
 E----------------------------------------------------------|

CHORUS (no sign of life...):
 
 E---------14-|
 B----15------|
 G--14--------|
 D------------|
 A------------|
 E------------|

LINK TO VERSE (but i got a hunch...):
[Bm] [F#] [G] [A#] [D] [A]  
 
 E----------------------------------------|
 B----3----------77777777-----------------|
 G----4--3--3--7-777777778888888888888----|
 D----4--4--5--8-777777779999999999999----|
 A--222--4--5--8-555555559999999999999----|
 E-----222333666---------7777777777777----|

CHORUS 2:
 
 E---------14-|
 B-----15-----|
 G--/14-------|
 D------------|
 A------------|
 E------------|

LINK TO VERSE (2):
[Bm] [F#] [G] [A#] [D] [A] [D]  
 
 E-----------------------------------|
 B----3---------77777777--------7777-|
 G----4--3--5--777777777777777777777-|
 D----4--4--5--877777777777777777777-|
 A--222--4--5--855555555777777775555-|
 E-----222333666--------55555555-----|

VERSE 3 INTRO:
 
 E-----------------------------------------|
 B-----6-6-6-6-----6-6-8bu108bu108bu10bd8--|
 G--5h7-7-7-7---5h7-7-7--------------------|
 D-----------------------------------------|
 A-----------------------------------------|
 E-----------------------------------------|
 E-----------------------------------------|
 B-----6-6-8b108bu10-----6-6-8bu108bu10----|
 G--5h7-7-7-----------5h7-7-7--------------|
 D-----------------------------------------|
 A-----------------------------------------|
 E-----------------------------------------|

CHORUS 3:
 
 E------|

B--15--|
G--14--|
 
 D------|
 A------|
 E------|

LINK TO VERSE (3):
 
 E-----------------------------------------------|
 B----3---------77777777--------77777777---------|
 G----4--3--4--77777777766666666777777776666666--|
 D----4--4--5--87777777777777777777777777777777--|
 A--222--4--5--85555555577777777555555557777777--|
 E-----222333666--------55555555--------5555555--|

\elec./
/riff \
E-8BU10- (7 times)
 
 B-------|
 G-------|
 D-------|
 A-------|
 E-------|

OUTRO:
 
 E---------------8bu10(2 times)------------8bu10(2 times)-1313131310-----|
 B--8bu10(8 times)------------8bu10(2 times)------------------------1310-|
 G-----------------------------------------------------------------------|
 D-----------------------------------------------------------------------|
 A-----------------------------------------------------------------------|
 E-----------------------------------------------------------------------|
 E-----------------------------1313131313131310-----------|
 B---------------------------------------------131013bu15-|
 G-1010101010107710101010101077---------------------------|
 D--------------------------------------------------------|
 A--------------------------------------------------------|
 E--------------------------------------------------------|

Intro
Verse
Link
Chorus
Link to Verse
Verse
Link
Chorus 2
Link to Verse
Intro to Verse 2
Verse
Chorus 3
Link to Verse 3
Verse
Outro
Tab By Dannyboy Adams

Important: The song above is NOT stored on the Chordie server. The original song is hosted at www.guitaretab.com. Chordie works as a search engine and provides on-the-fly formatting. Chordie does not index songs against artists'/composers' will. To remove this song please click here.

Text color:
Chord color:
Chord grids: 
Font size:    
Page size: 

A A# Bm D F# G
Rate #1 of 8 versions

Login - add to songbook

SHARE PAGE  



You need to log in to post comments