Guitar Tabs, Chords and Lyrics
Major upgrade!! After one year development the new version of Chordie is now online! Please give feedback.


Saint Roy  One Dimensional Man

Home page
www.onedimensionalman.com
Band :ONE DIMENSIONAL MAN
Album : You Kill Me
Song : "SAINT ROY"
Track : #1/14
Country : Italy
Tuning Info
[#####################]e as e
[B] [as] [B]  
[G] [as] [G]  
[D] [as] [D]  
[A] [as] [A]  
[E] [as] [E]  
[#####################]INTRO
Guitar 1
w/dist.
Rhy.fig.1
 
 e|------------------------------------------------------|
 B|------------------------------------------------------|
 G|------------------------------------------------------|
 D|----0-----0----0----0---------------------------------|
 A|-2-3--1/4---2-3--1/6----------------------------------|Repeat 2 times
 E|3----2-----3----2-------------------------------------|

VERSE 1
Guitar 1
w/dist.
 
 e|------------------------------------------------------|
 B|------------------------------------------------------|
 G|------------------0-----------------------------------|
 D|-----------------0------------------------------------|repeat 2 times with some variations
 A|2---1---2---1---2-------------------------------------|
 E|------------------------------------------------------|Then:
 e|------------------------------------------------------|
 B|------------------------------------------------------|In this part there's a second guitar
 G|------------------------------------------------------|that play some notes in background
 D|-----0-0-0-0-0-0-0-0-0-0-0-0---0-0-0-0-0-0-0-0-0-0-0-0|that you can improvise by your self.
 A|0h2/3-3-3-3-3-3-2-2-2-2-2-2-2/3-3-3-3-3-3-2-2-2-2-2-2-|It's not 100% correct probably.
 E|------------------------------------------------------|

INTERLUDE
Guitar 1
w/dist
 
 e|-----------------------------------------------|---------------------------|Repeat this part
 B|-----------------------------------------------|---------------------------|2 times.
 G|---------2-0--------2-0--------2-0--------4-0--|---------------------------|
 D|-----0-0---------0-0--------0-0--------0-0-----|---2-0---2-0---------------|
 A|0h2/3-3-----0h2/3-3----0h2/3-3----0h2/3-3------|---------------------------|
 E|-----------------------------------------------|-3----04-------------------|

>>>>
VERSE 2
This don't need tablature.The guitar follow the bass line with some variations
The INTERLUDE is the same.
OUTRO
Guitar 1,2
w/dist.
[G5] [G#5] [A5]  
 
 e|------------------------------------------------------|
 B|------------------------------------------------------|
 G|------------------------------------------------------|
 D|5--5--5-5-5-6-6-7-7-----------------------------------|
 A|5--5--5-5-5-6-6-7-7-----------------------------------|
 E|3--3--3-3-3-4-4-5-5-----------------------------------|

Repeat the OUTRO 4 times then the song finish with G5.
That's it.
SONG TABBED BY BRUNO GAMBA 2002 FOR ANY QUESTION nobbru@libero.it
Used Tab Symbols
[#####################] h = Hammer On
/ = Slide Up
[#####################] 

Important: The song above is NOT stored on the Chordie server. The original song is hosted at www.guitaretab.com. Chordie works as a search engine and provides on-the-fly formatting. Chordie does not index songs against artists'/composers' will. To remove this song please click here.

Text color:
Chord color:
Chord grids: 
Font size:    
Page size: 

A A5 B D E G G#5 G5
Rate #1 of 1 versions

Jango Player

Login - add to songbook

SHARE PAGE  



You need to log in to post comments