Guitar Tabs, Chords and Lyrics
Server problems seems to be fixed. Chordie has been experiencing problems with songs disappearing. These issues now seems to be fixed, but still verifying the fix. If you find anything strange, please email admin@chordie.com.


Say You Don't Want It  One Night Only

Say You Don't Want It - One Night Only Tab
Standard Tuning
Capo 3 - (All chords and riffs are relative to the capo)
Note: The verse pattern of |A|Em|G|D| can be changed to |A|Em|G Em|D|,
whereby the "em" is (022000) and is played on the 6th quaver beat of the
bar, which follows the vocal line more closely. Also, I find playing D
as (x00232) gives a slightly fuller sound. Feel free to contact me at
christocalicole@googlemail.com for comments or corrections ;)
[A] [Em] [G] [D]  
 
 e |----0----3----3----2----|
 B |----2----0----0----3----|
 G |----2----0----0----2----|
 D |----2----2----0----0----|
 A |----0----2----2----x----|
 E |----x----0----3----x----|

Intro:
 
 e |-------------------|
 B |-------------------|
 G |-----2-------------|
 D |-------------------|
 A |---0---0-----------|
 E |-0-------0---------|

Riff:
 
 e |---------------------------------|---------------------------------|
 B |-3-3-3-2-2-2-0-0-0-0-0-0-0-0-0-0-|-3-3-3-2-2-2-0-0-----------------|
 G |---------------------------------|-----------------2-2-2-2-2-2-2-2-|
 D |---------------------------------|---------------------------------|
 A |---------------------------------|---------------------------------|
 E |---------------------------------|---------------------------------|
 e |---------------------------------|---------------------------------|
 B |-3-3-3-2-2-2-0-0-0-0-0-0-0-0---0-|-3-3-3-2-2-2-0-0-----------------|
 G |-----------------------------2---|-----------------2-2-2-2-2-2-2-2-|
 D |---------------------------------|---------------------------------|
 A |---------------------------------|---------------------------------|
 E |---------------------------------|---------------------------------|

Verse:
[A]Talk all the talk with a [Em]poet's style
[G]Tongue like electric, [D]eyes like a child
[A]Buy all your wives and the [Em]classic cars
[G]Live like a savior, [D]live like the stars
[A]Talk all the talk with a [Em]model's smile
[G]Tongue like electric, [D]eyes like a child
[A]Buy all your highs and the [Em]classic cars
And [G]die on the front page, [D]just like the stars
Chorus:
[A] The big screens, the pl[Em]astic-made dreams
S[G]ay you don't want it, s[D]ay you don't want it
[A] It's our world, the p[Em]icture-book girls
S[G]ay you don't want it, s[D]ay you don't want it
[A] Don't you ask me if it's [Em]love my dear
[G] Love don't really mean a [D]thing round here
[A] The fake scenes the pl[Em]astic-made dreams
S[G]ay you don't want it, s[D]ay you don't want it
(Verse and Chorus chord pattern is identical throughout)
Pace all the rooms with a jealous style
Tongue like electric, eyes like a child
Paint all your soul with the grand designs
Preach like a savior, your heart on the line
Talk all the talk with a model's smile
Tongue like electric, eyes like a child
Buy all your highs and the classic cars
And die on the front page, just like the stars
The big screens, the plastic-made dreams
Say you don't want it, say you don't want it
It's our world, the picture-book girls
Say you don't want it, say you don't want it
Don't you ask me if it's love my dear
Love don't really mean a thing round here
The fake scenes the plastic-made dreams
Say you don't want it, say you don't want it
(Instrumental: A Em G D x 4) -play chords as before, but mute the top e
The big screens, the plastic-made dreams \
Say you don't want it, say you don't want it \
It's our world, the picture-book girls }- No guitar
Say you don't want it, say you don't want it /
The big screens, the plastic-made dreams
Say you don't want it, say you don't want it
It's our world, the picture-book girls
Say you don't want it, say you don't want it
Don't you ask me if it's love my dear
Love don't really mean a thing round here
The fake scenes the plastic-made dreams
Say you don't want it, say you don't want it
A Em \
G D \
Say you don't want it, say you don't want it \
A Em }-Repeat and fade out
S[G]ay you don't want it, s[D]ay you don't want it /[/]

Important: The song above is NOT stored on the Chordie server. The original song is hosted at www.guitaretab.com. Chordie works as a search engine and provides on-the-fly formatting. Chordie does not index songs against artists'/composers' will. To remove this song please click here.

Text color:
Chord color:
Chord grids: 
Font size:    
Page size: 

A D Em G
Rate #1 of 4 versions

Login - add to songbook

SHARE PAGE  




You need to log in to post comments