Guitar Tabs, Chords and Lyrics
Server problems seems to be fixed. Chordie has been experiencing problems with songs disappearing. These issues now seems to be fixed, but still verifying the fix. If you find anything strange, please email admin@chordie.com.


Vague  Orgy

As recorded by Orgy
(From the 2004 Album PUNK STATIK PARANOIA)
Transcribed by Mike Angiolillo
Words by J.Gordon Music by A.Derakh, R.Shuck,P.Haley, B.Hewitt
Gtr I (A# D# G# C# F A#) - 'Amir Derakh'
Gtr II (A# D# G# C# F# A# D#) - 'Ryan Shuck'
Q=105
[4/4] Gtr I
~~~~~~~~~~~~~~~~~~~~~~~~~~~~ ~~~~~~~~~~~~~~~~~~~~~~~~~~~~
H. +E E H. +E E
 
 |-12----------------------(12)---|-12----------------------(12)---|
 |--------------------------------|--------------------------------|
 |--------------------------------|--------------------------------|
 |--------------------------------|--------------------------------|
 |--------------------------------|--------------------------------|
 |--------------------------------|--------------------------------|

|
| Gtr II
| S S S E S S S S S S S E E S S S E S S S S S S S E E
 
 |--------------------------------|--------------------------------|
 |--------------------------------|--------------------------------|
 |--------------------------------|--------------------------------|
 |--------------------------------|--------------------------------|
 |--------------------------------|--------------------------------|
 |--------------------------------|--------------------------------|
 |--5--5-5-6-5-5-5-5-5-5-5---6----|--5--5-5-6-5-5-5-5-5-5-5---6----|

~~~~~~~~~~~~~~~~~~~~~~~~~~~~ ~~~~~~~~~~~~~~~~~~~~~~~~~~~~
H. +E E H. +E E
 
 |-12----------------------(12)---|-12----------------------(12)------|
 |--------------------------------|-----------------------------------|
 |--------------------------------|-----------------------------------|
 |--------------------------------|-----------------------------------|
 |--------------------------------|-----------------------------------|
 |--------------------------------|-----------------------------------|

|
| S S S E S S S S S S S E E S S S E S S S S S S S E E
 
 |--------------------------------|-----------------------------------|
 |--------------------------------|-----------------------------------|
 |--------------------------------|-----------------------------------|
 |--------------------------------|-----------------------------------|
 |--------------------------------|-----------------------------------|
 |--------------------------------|-----------------------------------|
 |--5--5-5-6-5-5-5-5-5-5-5---6----|--5--5-5-6-5-5-5-5-5-5-5---6-------|

W W W W
 
 |--------|----------|-----------|------|
 |--------|----------|-----------|------|
 |--------|----------|-----------|------|
 |--------|----------|-----------|------|
 |--------|----------|-----------|------|
 |--------|----------|-----------|------|

|
| W W W W
 
 |--------|----------|-----------|------|
 |--------|----------|-----------|------|
 |--------|----------|-----------|------|
 |--------|----------|-----------|------|
 |--------|----------|-----------|------|
 |--------|----------|-----------|------|
 |--------|----------|-----------|------|

~~
H H W
 
 |-----------------------|----------------------|
 |-10--------------------|----------------------|
 |-----------------------|----------------------|
 |-----------------------|----------------------|
 |-----------------------|----------------------|
 |-----------------------|----------------------|

|
 
 | PM-------------------------------------------

| S S S S S S S S H S S S S S S S S H
 
 |-----------------------|----------------------|
 |-----------------------|----------------------|
 |-----------------------|----------------------|
 |-----------------------|----------------------|
 |-----------------------|----------------------|
 |--0-0-0-0-0-0-0-0------|-0-0-0-0-0-0-0-0------|
 |-----------------------|----------------------|

~~ ~
[B] [B] [B] [B]  
 
 |-----------------------|----------------------|
 |-11--------------------|-8--------------------|
 |-----------------------|----------------------|
 |-----------------------|----------------------|
 |-----------------------|----------------------|
 |-----------------------|----------------------|

|
 
 |-----------------------------------------|

| S S S S S S S S H S S S S S S S S H
 
 |-----------------------|----------------------|
 |-----------------------|----------------------|
 |-----------------------|----------------------|
 |-----------------------|----------------------|
 |-----------------------|----------------------|
 |--5-5-5-5-5-5-5-5------|-3-3-3-3-3-3-3-3------|
 |-----------------------|----------------------|

~~
H H W
 
 |-----------------------|----------------------|
 |-10--------------------|----------------------|
 |-----------------------|----------------------|
 |-----------------------|----------------------|
 |-----------------------|----------------------|
 |-----------------------|----------------------|

|
 
 | PM-------------------------------------------

| S S S S S S S S H S S S S S S S S H
 
 |-----------------------|----------------------|
 |-----------------------|----------------------|
 |-----------------------|----------------------|
 |-----------------------|----------------------|
 |-----------------------|----------------------|
 |--0-0-0-0-0-0-0-0------|-0-0-0-0-0-0-0-0------|
 |-----------------------|----------------------|

~~ ~ ~~
H H H Q Q
 
 |-----------------------|--------------------12----|
 |-11--------------------|-8------------------------|
 |-----------------------|--------------------------|
 |-----------------------|--------------------------|
 |-----------------------|--------------------------|
 |-----------------------|--------------------------|

|
 
 |-----------------------------------------|

| S S S S S S S S H S S S S S S S S H
 
 |-----------------------|--------------------------|
 |-----------------------|--------------------------|
 |-----------------------|--------------------------|
 |-----------------------|--------------------------|
 |-----------------------|--------------------------|
 |--5-5-5-5-5-5-5-5------|-3-3-3-3-3-3-3-3----------|
 |-----------------------|--------------------------|

~~
H H W
 
 |-----------------------|----------------------|
 |-10--------------------|----------------------|
 |-----------------------|----------------------|
 |-----------------------|----------------------|
 |-----------------------|----------------------|
 |-----------------------|----------------------|

|
 
 | PM-------------------------------------------

| S S S S S S S S H S S S S S S S S H
 
 |-----------------------|----------------------|
 |-----------------------|----------------------|
 |-----------------------|----------------------|
 |-----------------------|----------------------|
 |-----------------------|----------------------|
 |--0-0-0-0-0-0-0-0------|-0-0-0-0-0-0-0-0------|
 |-----------------------|----------------------|

~~ ~
[B] [B] [B] [B]  
 
 |------------------------|----------------------|
 |-11---------------------|-8--------------------|
 |------------------------|----------------------|
 |------------------------|----------------------|
 |------------------------|----------------------|
 |------------------------|----------------------|

|
 
 |------------------------------------------|

| S S S S S S S S H S S S S S S S S H
 
 |------------------------|----------------------|
 |------------------------|----------------------|
 |------------------------|----------------------|
 |------------------------|----------------------|
 |------------------------|----------------------|
 |--5-5-5-5-5-5-5-5-------|-3-3-3-3-3-3-3-3------|
 |------------------------|----------------------|

~~
H H W
 
 |-----------------------|----------------------|
 |-10--------------------|----------------------|
 |-----------------------|----------------------|
 |-----------------------|----------------------|
 |-----------------------|----------------------|
 |-----------------------|----------------------|

|
 
 | PM-------------------------------------------

| S S S S S S S S H S S S S S S S S H
 
 |-----------------------|----------------------|
 |-----------------------|----------------------|
 |-----------------------|----------------------|
 |-----------------------|----------------------|
 |-----------------------|----------------------|
 |--0-0-0-0-0-0-0-0------|-0-0-0-0-0-0-0-0------|
 |-----------------------|----------------------|

~~~~~~~~~~~~~~~~~~~~~~~~~~~ PM--|
Q H. H S S S E E S
 
 |-------------------------|------------------------------|
 |-10---11-----------------|-8----------------------------|
 |-------------------------|------------------------------|
 |-------------------------|-----------------8-7---8-8-8--|
 |-------------------------|-----------------8-7---8-8-8--|
 |-------------------------|-----------------6-5---6-6-6--|

|
 
 |-----------------------------------------| PM--|

| S S S S S S S S H S S S S S S S S S S S E E S
 
 |-------------------------|------------------------------|
 |-------------------------|------------------------------|
 |-------------------------|------------------------------|
 |-------------------------|------------------------------|
 |-------------------------|-----------------8-7---8-8-8--|
 |--5-5--5--5-5-5-5-5------|-3-3-3-3-3-3-3-3-8-7---8-8-8--|
 |-------------------------|-----------------6-5---6-6-6--|

8/4
 
 PM--| PM--| PM--|

Q S S S E E S S S S E E S S S S S S S S E E S 4x
 
 ||-----------------------------------------------------||
 ||o---------------------------------------------------o||
 ||-----------------------------------------------------||
 ||--7--8-7---7-7-7-8-7---7-7-7-8-7---7-8-7---8-8-8-----||
 ||o-7--8-7---7-7-7-8-7---7-7-7-8-7---7-8-7---8-8-8----o||
 ||--5--6-5---5-5-5-6-5---5-5-5-6-5---5-6-5---6-6-6-----||

|
 
 | PM--| PM--| PM--|

| Q S S S E E S S S S E E S S S S S S S S E E S 4x
 
 ||-----------------------------------------------------||
 ||-----------------------------------------------------||
 ||o---------------------------------------------------o||
 ||-----------------------------------------------------||
 ||o-7--8-7---7-7-7-8-7---7-7-7-8-7---7-8-7---8-8-8----o||
 ||--7--8-7---7-7-7-8-7---7-7-7-8-7---7-8-7---8-8-8-----||
 ||--5--6-5---5-5-5-6-5---5-5-5-6-5---5-6-5---6-6-6-----||

[4/4] S S S S S S S S S S S S S S S S S S S S S S S S S S S S S S S S
 
 |---------------------------------|----------------------------------|
 |---------------------------------|----------------------------------|
 |-------------------------9-9-9-9-|-------------------------9-9-9-9--|
 |-7-7-7-7-7-7-7-7-7-7-7-7---------|-5-5-5-5-5-5-5-5-5-5-5-5----------|
 |-7-7-7-7-7-7-7-7-7-7-7-7-7-7-7-7-|-5-5-5-5-5-5-5-5-5-5-5-5-7-7-7-7--|
 |-5-5-5-5-5-5-5-5-5-5-5-5---------|-3-3-3-3-3-3-3-3-3-3-3-3----------|

|
| S S S S S S S S S S S S S S S S S S S S S S S S S S S S S S S S
 
 |---------------------------------|----------------------------------|
 |---------------------------------|----------------------------------|
 |---------------------------------|----------------------------------|
 |-------------------------9-9-9-9-|-------------------------9-9-9-9--|
 |-7-7-7-7-7-7-7-7-7-7-7-7---------|-5-5-5-5-5-5-5-5-5-5-5-5----------|
 |-7-7-7-7-7-7-7-7-7-7-7-7-7-7-7-7-|-5-5-5-5-5-5-5-5-5-5-5-5-7-7-7-7--|
 |-5-5-5-5-5-5-5-5-5-5-5-5---------|-3-3-3-3-3-3-3-3-3-3-3-3----------|

S S S S S S S S S S S S S S S S S S S S S S S S S S S S S S S S
 
 |---------------------------------|-----------------------------------|
 |---------------------------------|-----------------------------------|
 |-------------------------9-9-9-9-|-------------------------9-9-9-9---|
 |---------------------------------|-----------------------------------|
 |-7-7-7-7-7-7-7-7-7-7-7-7-7-7-7-7-|-7-7-7-7-7-7-7-7-7-7-7-7-7-7-7-7---|
 |-0-0-0-0-0-0-0-0-0-0-0-0---------|-0-0-0-0-0-0-0-0-0-0-0-0-----------|

|
| S S S S S S S S S S S S S S S S S S S S S S S S S S S S S S S S
 
 |---------------------------------|-----------------------------------|
 |---------------------------------|-----------------------------------|
 |---------------------------------|-----------------------------------|
 |-------------------------9-9-9-9-|-------------------------9-9-9-9---|
 |-2-2-2-2-2-2-2-2-2-2-2-2---------|-2-2-2-2-2-2-2-2-2-2-2-2-----------|
 |-2-2-2-2-2-2-2-2-2-2-2-2-7-7-7-7-|-2-2-2-2-2-2-2-2-2-2-2-2-7-7-7-7---|
 |-0-0-0-0-0-0-0-0-0-0-0-0---------|-0-0-0-0-0-0-0-0-0-0-0-0-----------|

S S S S S S S S S S S S S S S S S S S S S S S S S S S S S S S S
 
 |---------------------------------|-----------------------------------|
 |---------------------------------|-----------------------------------|
 |-------------------------9-9-9-9-|-------------------------9-9-9-9---|
 |-6-6-6-6-6-6-6-6-6-6-6-6---------|-5-5-5-5-5-5-5-5-5-5-5-5-----------|
 |-6-6-6-6-6-6-6-6-6-6-6-6-7-7-7-7-|-5-5-5-5-5-5-5-5-5-5-5-5-7-7-7-7---|
 |-4-4-4-4-4-4-4-4-4-4-4-4---------|-3-3-3-3-3-3-3-3-3-3-3-3-----------|

|
| S S S S S S S S S S S S S S S S S S S S S S S S S S S S S S S S
 
 |---------------------------------|-----------------------------------|
 |---------------------------------|-----------------------------------|
 |---------------------------------|-----------------------------------|
 |-------------------------9-9-9-9-|-------------------------9-9-9-9---|
 |-6-6-6-6-6-6-6-6-6-6-6-6---------|-5-5-5-5-5-5-5-5-5-5-5-5-----------|
 |-6-6-6-6-6-6-6-6-6-6-6-6-7-7-7-7-|-5-5-5-5-5-5-5-5-5-5-5-5-7-7-7-7---|
 |-4-4-4-4-4-4-4-4-4-4-4-4---------|-3-3-3-3-3-3-3-3-3-3-3-3-----------|

S S S S S S S S S S S S S S S S S S S S S S S S S S S S S S S S
 
 |---------------------------------|-----------------------------------|
 |---------------------------------|-----------------------------------|
 |-------------------------9-9-9-9-|-------------------------9-9-9-9---|
 |---------------------------------|-----------------------------------|
 |-7-7-7-7-7-7-7-7-7-7-7-7-7-7-7-7-|-7-7-7-7-7-7-7-7-7-7-7-7-7-7-7-7---|
 |-0-0-0-0-0-0-0-0-0-0-0-0---------|-0-0-0-0-0-0-0-0-0-0-0-0-----------|

|
| S S S S S S S S S S S S S S S S S S S S S S S S S S S S S S S S
 
 |---------------------------------|-----------------------------------|
 |---------------------------------|-----------------------------------|
 |---------------------------------|-----------------------------------|
 |-------------------------9-9-9-9-|-------------------------9-9-9-9---|
 |-2-2-2-2-2-2-2-2-2-2-2-2---------|-2-2-2-2-2-2-2-2-2-2-2-2-----------|
 |-2-2-2-2-2-2-2-2-2-2-2-2-7-7-7-7-|-2-2-2-2-2-2-2-2-2-2-2-2-7-7-7-7---|
 |-0-0-0-0-0-0-0-0-0-0-0-0---------|-0-0-0-0-0-0-0-0-0-0-0-0-----------|

W W
 
 |---------------------|-----------|
 |---------------------|-----------|
 |---------------------|-----------|
 |---------------------|-----------|
 |---------------------|-----------|
 |---------------------|-----------|

|
| H. Q W
 
 |---------------------|-----------|
 |---------------------|-----------|
 |---------------------|-----------|
 |-9------------10-----|--9--------|
 |---------------------|-----------|
 |-7-------------8-----|--7--------|
 |---------------------|-----------|

W W
 
 |----------------------|----------------------|
 |----------------------|----------------------|
 |----------------------|----------------------|
 |----------------------|----------------------|
 |----------------------|----------------------|
 |----------------------|----------------------|

|
 
 | PM-------------------------------------------

| S S S S S S S S H S S S S S S S S H
 
 |----------------------|----------------------|
 |----------------------|----------------------|
 |----------------------|----------------------|
 |----------------------|----------------------|
 |----------------------|----------------------|
 |-0-0-0-0-0-0-0-0------|-0-0-0-0-0-0-0-0------|
 |----------------------|----------------------|

W W
 
 |----------------------|----------------------|
 |----------------------|----------------------|
 |----------------------|----------------------|
 |----------------------|----------------------|
 |----------------------|----------------------|
 |----------------------|----------------------|

|
 
 |----------------------------------------|

| S S S S S S S S H S S S S S S S S H
 
 |----------------------|----------------------|
 |----------------------|----------------------|
 |----------------------|----------------------|
 |----------------------|----------------------|
 |----------------------|----------------------|
 |-0-0-0-0-0-0-0-0------|-3-3-3-3-3-3-3-3------|
 |----------------------|----------------------|

~~
H H W
 
 |-----------------------|----------------------|
 |-10--------------------|----------------------|
 |-----------------------|----------------------|
 |-----------------------|----------------------|
 |-----------------------|----------------------|
 |-----------------------|----------------------|

|
 
 | PM-------------------------------------------

| S S S S S S S S H S S S S S S S S H
 
 |-----------------------|----------------------|
 |-----------------------|----------------------|
 |-----------------------|----------------------|
 |-----------------------|----------------------|
 |-----------------------|----------------------|
 |--0-0-0-0-0-0-0-0------|-0-0-0-0-0-0-0-0------|
 |-----------------------|----------------------|

~~ ~
[B] [B] [B] [B]  
 
 |-----------------------|----------------------|
 |-11--------------------|-8--------------------|
 |-----------------------|----------------------|
 |-----------------------|----------------------|
 |-----------------------|----------------------|
 |-----------------------|----------------------|

|
 
 |-----------------------------------------|

| S S S S S S S S H S S S S S S S S H
 
 |-----------------------|----------------------|
 |-----------------------|----------------------|
 |-----------------------|----------------------|
 |-----------------------|----------------------|
 |-----------------------|----------------------|
 |--5-5-5-5-5-5-5-5------|-3-3-3-3-3-3-3-3------|
 |-----------------------|----------------------|

~~
H H W
 
 |-----------------------|----------------------|
 |-10--------------------|----------------------|
 |-----------------------|----------------------|
 |-----------------------|----------------------|
 |-----------------------|----------------------|
 |-----------------------|----------------------|

|
 
 | PM-------------------------------------------

| S S S S S S S S H S S S S S S S S H
 
 |-----------------------|----------------------|
 |-----------------------|----------------------|
 |-----------------------|----------------------|
 |-----------------------|----------------------|
 |-----------------------|----------------------|
 |--0-0-0-0-0-0-0-0------|-0-0-0-0-0-0-0-0------|
 |-----------------------|----------------------|

~~ ~ ~~
H H H Q Q
 
 |-----------------------|--------------------12----|
 |-11--------------------|-8------------------------|
 |-----------------------|--------------------------|
 |-----------------------|--------------------------|
 |-----------------------|--------------------------|
 |-----------------------|--------------------------|

|
 
 |-----------------------------------------|

| S S S S S S S S H S S S S S S S S H
 
 |-----------------------|--------------------------|
 |-----------------------|--------------------------|
 |-----------------------|--------------------------|
 |-----------------------|--------------------------|
 |-----------------------|--------------------------|
 |--5-5-5-5-5-5-5-5------|-3-3-3-3-3-3-3-3----------|
 |-----------------------|--------------------------|

~~
H H W
 
 |-----------------------|----------------------|
 |-10--------------------|----------------------|
 |-----------------------|----------------------|
 |-----------------------|----------------------|
 |-----------------------|----------------------|
 |-----------------------|----------------------|

|
 
 | PM-------------------------------------------

| S S S S S S S S H S S S S S S S S H
 
 |-----------------------|----------------------|
 |-----------------------|----------------------|
 |-----------------------|----------------------|
 |-----------------------|----------------------|
 |-----------------------|----------------------|
 |--0-0-0-0-0-0-0-0------|-0-0-0-0-0-0-0-0------|
 |-----------------------|----------------------|

~~~~~~~~~~~~~~~~~~~~~~~~~~~ PM--|
Q H. H S S S E E S
 
 |-------------------------|------------------------------|
 |-10-------11-------------|-8----------------------------|
 |-------------------------|------------------------------|
 |-------------------------|-----------------8-7---8-8-8--|
 |-------------------------|-----------------8-7---8-8-8--|
 |-------------------------|-----------------6-5---6-6-6--|

|
 
 |-----------------------------------------| PM--|

| S S S S S S S S H S S S S S S S S S S S E E S
 
 |-------------------------|------------------------------|
 |-------------------------|------------------------------|
 |-------------------------|------------------------------|
 |-------------------------|------------------------------|
 |-------------------------|-----------------8-7---8-8-8--|
 |--5-5-5-5--5--5-5-5------|-3-3-3-3-3-3-3-3-8-7---8-8-8--|
 |-------------------------|-----------------6-5---6-6-6--|

8/4
 
 PM--| PM--| PM--|

Q S S S E E S S S S E E S S S S S S S S E E S 4x
 
 ||-----------------------------------------------------||
 ||o---------------------------------------------------o||
 ||-----------------------------------------------------||
 ||--7--8-7---7-7-7-8-7---7-7-7-8-7---7-8-7---8-8-8-----||
 ||o-7--8-7---7-7-7-8-7---7-7-7-8-7---7-8-7---8-8-8----o||
 ||--5--6-5---5-5-5-6-5---5-5-5-6-5---5-6-5---6-6-6-----||

|
 
 | PM--| PM--| PM--|

| Q S S S E E S S S S E E S S S S S S S S E E S 4x
 
 ||-----------------------------------------------------||
 ||-----------------------------------------------------||
 ||o---------------------------------------------------o||
 ||-----------------------------------------------------||
 ||o-7--8-7---7-7-7-8-7---7-7-7-8-7---7-8-7---8-8-8----o||
 ||--7--8-7---7-7-7-8-7---7-7-7-8-7---7-8-7---8-8-8-----||
 ||--5--6-5---5-5-5-6-5---5-5-5-6-5---5-6-5---6-6-6-----||

[4/4] S S S S S S S S S S S S S S S S S S S S S S S S S S S S S S S S
 
 |---------------------------------|----------------------------------|
 |---------------------------------|----------------------------------|
 |-------------------------9-9-9-9-|-------------------------9-9-9-9--|
 |-7-7-7-7-7-7-7-7-7-7-7-7---------|-5-5-5-5-5-5-5-5-5-5-5-5----------|
 |-7-7-7-7-7-7-7-7-7-7-7-7-7-7-7-7-|-5-5-5-5-5-5-5-5-5-5-5-5-7-7-7-7--|
 |-5-5-5-5-5-5-5-5-5-5-5-5---------|-3-3-3-3-3-3-3-3-3-3-3-3----------|

|
| S S S S S S S S S S S S S S S S S S S S S S S S S S S S S S S S
 
 |---------------------------------|----------------------------------|
 |---------------------------------|----------------------------------|
 |---------------------------------|----------------------------------|
 |-------------------------9-9-9-9-|-------------------------9-9-9-9--|
 |-7-7-7-7-7-7-7-7-7-7-7-7---------|-5-5-5-5-5-5-5-5-5-5-5-5----------|
 |-7-7-7-7-7-7-7-7-7-7-7-7-7-7-7-7-|-5-5-5-5-5-5-5-5-5-5-5-5-7-7-7-7--|
 |-5-5-5-5-5-5-5-5-5-5-5-5---------|-3-3-3-3-3-3-3-3-3-3-3-3----------|

S S S S S S S S S S S S S S S S S S S S S S S S S S S S S S S S
 
 |---------------------------------|-----------------------------------|
 |---------------------------------|-----------------------------------|
 |-------------------------9-9-9-9-|-------------------------9-9-9-9---|
 |---------------------------------|-----------------------------------|
 |-7-7-7-7-7-7-7-7-7-7-7-7-7-7-7-7-|-7-7-7-7-7-7-7-7-7-7-7-7-7-7-7-7---|
 |-0-0-0-0-0-0-0-0-0-0-0-0---------|-0-0-0-0-0-0-0-0-0-0-0-0-----------|

|
| S S S S S S S S S S S S S S S S S S S S S S S S S S S S S S S S
 
 |---------------------------------|-----------------------------------|
 |---------------------------------|-----------------------------------|
 |---------------------------------|-----------------------------------|
 |-------------------------9-9-9-9-|-------------------------9-9-9-9---|
 |-2-2-2-2-2-2-2-2-2-2-2-2---------|-2-2-2-2-2-2-2-2-2-2-2-2-----------|
 |-2-2-2-2-2-2-2-2-2-2-2-2-7-7-7-7-|-2-2-2-2-2-2-2-2-2-2-2-2-7-7-7-7---|
 |-0-0-0-0-0-0-0-0-0-0-0-0---------|-0-0-0-0-0-0-0-0-0-0-0-0-----------|

S S S S S S S S S S S S S S S S S S S S S S S S S S S S S S S S
 
 |---------------------------------|-----------------------------------|
 |---------------------------------|-----------------------------------|
 |-------------------------9-9-9-9-|-------------------------9-9-9-9---|
 |-6-6-6-6-6-6-6-6-6-6-6-6---------|-5-5-5-5-5-5-5-5-5-5-5-5-----------|
 |-6-6-6-6-6-6-6-6-6-6-6-6-7-7-7-7-|-5-5-5-5-5-5-5-5-5-5-5-5-7-7-7-7---|
 |-4-4-4-4-4-4-4-4-4-4-4-4---------|-3-3-3-3-3-3-3-3-3-3-3-3-----------|

|
| S S S S S S S S S S S S S S S S S S S S S S S S S S S S S S S S
 
 |---------------------------------|-----------------------------------|
 |---------------------------------|-----------------------------------|
 |---------------------------------|-----------------------------------|
 |-------------------------9-9-9-9-|-------------------------9-9-9-9---|
 |-6-6-6-6-6-6-6-6-6-6-6-6---------|-5-5-5-5-5-5-5-5-5-5-5-5-----------|
 |-6-6-6-6-6-6-6-6-6-6-6-6-7-7-7-7-|-5-5-5-5-5-5-5-5-5-5-5-5-7-7-7-7---|
 |-4-4-4-4-4-4-4-4-4-4-4-4---------|-3-3-3-3-3-3-3-3-3-3-3-3-----------|

S S S S S S S S S S S S S S S S S S S S S S S S S S S S S S S S
 
 |---------------------------------|-----------------------------------|
 |---------------------------------|-----------------------------------|
 |-------------------------9-9-9-9-|-------------------------9-9-9-9---|
 |---------------------------------|-----------------------------------|
 |-7-7-7-7-7-7-7-7-7-7-7-7-7-7-7-7-|-7-7-7-7-7-7-7-7-7-7-7-7-7-7-7-7---|
 |-0-0-0-0-0-0-0-0-0-0-0-0---------|-0-0-0-0-0-0-0-0-0-0-0-0-----------|

|
| S S S S S S S S S S S S S S S S S S S S S S S S S S S S S S S S
 
 |---------------------------------|-----------------------------------|
 |---------------------------------|-----------------------------------|
 |---------------------------------|-----------------------------------|
 |-------------------------9-9-9-9-|-------------------------9-9-9-9---|
 |-2-2-2-2-2-2-2-2-2-2-2-2---------|-2-2-2-2-2-2-2-2-2-2-2-2-----------|
 |-2-2-2-2-2-2-2-2-2-2-2-2-7-7-7-7-|-2-2-2-2-2-2-2-2-2-2-2-2-7-7-7-7---|
 |-0-0-0-0-0-0-0-0-0-0-0-0---------|-0-0-0-0-0-0-0-0-0-0-0-0-----------|

H. Q H. Q H. Q H. Q
 
 |------------|------------|------------|------------|
 |------------|------------|------------|------------|
 |---------9--|---------9--|---------9--|---------9--|
 |-7----------|-5----------|-2----------|-2----------|
 |-7-------7--|-5-------7--|-2-------7--|-2-------7--|
 |-5----------|-3----------|-0----------|-0----------|

|
| H. Q H. Q H. Q H. Q
 
 |------------|------------|------------|------------|
 |------------|------------|------------|------------|
 |------------|------------|------------|------------|
 |------------|------------|------------|------------|
 |-7-------2--|-5-------2--|-2-------2--|-2-------2--|
 |-7-------2--|-5-------2--|-2-------2--|-2-------2--|
 |-5-------0--|-3-------0--|-0-------0--|-0-------0--|

H. Q H. Q H. Q H. Q
 
 |------------|------------|------------|------------|
 |------------|------------|------------|------------|
 |---------9--|---------9--|---------9--|---------9--|
 |-6----------|-5----------|-2----------|-2----------|
 |-6-------7--|-5-------7--|-2-------7--|-2-------7--|
 |-4----------|-3----------|-0----------|-0----------|

|
| H. Q H. Q H. Q H. Q
 
 |------------|------------|------------|------------|
 |------------|------------|------------|------------|
 |------------|------------|------------|------------|
 |------------|------------|------------|------------|
 |-6-------2--|-5-------2--|-2-------2--|-2-------2--|
 |-6-------2--|-5-------2--|-2-------2--|-2-------2--|
 |-4-------0--|-3-------0--|-0-------0--|-0-------0--|

[4/4] W W
 
 |---------------------|---------------------|
 |---------------------|---------------------|
 |---------------------|---------------------|
 |---------------------|---------------------|
 |---------------------|---------------------|
 |---------------------|---------------------|

|
| E S S E E S S E E E E S S E E S S E E E
 
 |---------------------|---------------------|
 |---------------------|---------------------|
 |---------------------|---------------------|
 |---------------------|---------------------|
 |-2-2-3---2-2-3---2-0-|-2-2-3---2-2-3---2-0-|
 |---------------------|---------------------|
 |---------------------|---------------------|

W W
 
 |---------------------|---------------------|
 |---------------------|---------------------|
 |---------------------|---------------------|
 |---------------------|---------------------|
 |---------------------|---------------------|
 |---------------------|---------------------|

|
| E S S E E S S E E E E S S E E S S E E E
 
 |---------------------|---------------------|
 |---------------------|---------------------|
 |---------------------|---------------------|
 |---------------------|---------------------|
 |-2-2-3---2-2-3---2-0-|-2-2-3---2-2-3---2-0-|
 |---------------------|---------------------|
 |---------------------|---------------------|

~~~~~~~~~~~~~~~~~~~~~~~~~~~~~~~~~~~~~~~~~~~~~
H.. E W
 
 ||-----------------------17-|-15-------------------|
 ||o---17--------------------|----------------------|
 ||--------------------------|----------------------|
 ||--------------------------|----------------------|
 ||o-------------------------|----------------------|
 ||--------------------------|----------------------|

|
| E S S E E S S E E E E S S E E S S E E E
 
 ||--------------------------|----------------------|
 ||--------------------------|----------------------|
 ||o-------------------------|----------------------|
 ||--------------------------|----------------------|
 ||o-2--2---3---2-2-3---2--0-|--2-2-3---2-2-3---2-0-|
 ||--------------------------|----------------------|
 ||--------------------------|----------------------|

~~~~~~~~~~~~~~~~~~~~~~~~~~~
W W 4x
 
 |----------------------|-----------------------||
 |-15-------------------|-14-------------------o||
 |----------------------|-----------------------||
 |----------------------|-----------------------||
 |----------------------|----------------------o||
 |----------------------|-----------------------||

|
| E S S E E S S E E E E S S E E S S E E E 4x
 
 |----------------------|-----------------------||
 |----------------------|-----------------------||
 |----------------------|----------------------o||
 |----------------------|-----------------------||
 |--2-2-3---2-2-3---2-0-|--2-2-3---2-2-3---2-0-o||
 |----------------------|-----------------------||
 |----------------------|-----------------------||

S S S S S S S S S S S S S S S S S S S S S S S S S S S S S S S S
 
 |---------------------------------|-----------------------------------|
 |---------------------------------|-----------------------------------|
 |-------------------------9-9-9-9-|-------------------------9-9-9-9---|
 |-7-7-7-7-7-7-7-7-7-7-7-7---------|-5-5-5-5-5-5-5-5-5-5-5-5-----------|
 |-7-7-7-7-7-7-7-7-7-7-7-7-7-7-7-7-|-5-5-5-5-5-5-5-5-5-5-5-5-7-7-7-7---|
 |-5-5-5-5-5-5-5-5-5-5-5-5---------|-3-3-3-3-3-3-3-3-3-3-3-3-----------|

|
| S S S S S S S S S S S S S S S S S S S S S S S S S S S S S S S S
 
 |---------------------------------|-----------------------------------|
 |---------------------------------|-----------------------------------|
 |---------------------------------|-----------------------------------|
 |-------------------------9-9-9-9-|-------------------------9-9-9-9---|
 |-7-7-7-7-7-7-7-7-7-7-7-7---------|-5-5-5-5-5-5-5-5-5-5-5-5-----------|
 |-7-7-7-7-7-7-7-7-7-7-7-7-7-7-7-7-|-5-5-5-5-5-5-5-5-5-5-5-5-7-7-7-7---|
 |-5-5-5-5-5-5-5-5-5-5-5-5---------|-3-3-3-3-3-3-3-3-3-3-3-3-----------|

S S S S S S S S S S S S S S S S S S S S S S S S S S S S S S S S
 
 |---------------------------------|-----------------------------------|
 |---------------------------------|-----------------------------------|
 |-------------------------9-9-9-9-|-------------------------9-9-9-9---|
 |---------------------------------|-----------------------------------|
 |-7-7-7-7-7-7-7-7-7-7-7-7-7-7-7-7-|-7-7-7-7-7-7-7-7-7-7-7-7-7-7-7-7---|
 |-0-0-0-0-0-0-0-0-0-0-0-0---------|-0-0-0-0-0-0-0-0-0-0-0-0-----------|

|
| S S S S S S S S S S S S S S S S S S S S S S S S S S S S S S S S
 
 |---------------------------------|-----------------------------------|
 |---------------------------------|-----------------------------------|
 |---------------------------------|-----------------------------------|
 |-------------------------9-9-9-9-|-------------------------9-9-9-9---|
 |-2-2-2-2-2-2-2-2-2-2-2-2---------|-2-2-2-2-2-2-2-2-2-2-2-2-----------|
 |-2-2-2-2-2-2-2-2-2-2-2-2-7-7-7-7-|-2-2-2-2-2-2-2-2-2-2-2-2-7-7-7-7---|
 |-0-0-0-0-0-0-0-0-0-0-0-0---------|-0-0-0-0-0-0-0-0-0-0-0-0-----------|

S S S S S S S S S S S S S S S S S S S S S S S S S S S S S S S S
 
 |---------------------------------|-----------------------------------|
 |---------------------------------|-----------------------------------|
 |-------------------------9-9-9-9-|-------------------------9-9-9-9---|
 |-6-6-6-6-6-6-6-6-6-6-6-6---------|-5-5-5-5-5-5-5-5-5-5-5-5-----------|
 |-6-6-6-6-6-6-6-6-6-6-6-6-7-7-7-7-|-5-5-5-5-5-5-5-5-5-5-5-5-7-7-7-7---|
 |-4-4-4-4-4-4-4-4-4-4-4-4---------|-3-3-3-3-3-3-3-3-3-3-3-3-----------|

|
| S S S S S S S S S S S S S S S S S S S S S S S S S S S S S S S S
 
 |---------------------------------|-----------------------------------|
 |---------------------------------|-----------------------------------|
 |---------------------------------|-----------------------------------|
 |-------------------------9-9-9-9-|-------------------------9-9-9-9---|
 |-6-6-6-6-6-6-6-6-6-6-6-6---------|-5-5-5-5-5-5-5-5-5-5-5-5-----------|
 |-6-6-6-6-6-6-6-6-6-6-6-6-7-7-7-7-|-5-5-5-5-5-5-5-5-5-5-5-5-7-7-7-7---|
 |-4-4-4-4-4-4-4-4-4-4-4-4---------|-3-3-3-3-3-3-3-3-3-3-3-3-----------|

S S S S S S S S S S S S S S S S S S S S S S S S S S S S S S S S
 
 |---------------------------------|-----------------------------------|
 |---------------------------------|-----------------------------------|
 |-------------------------9-9-9-9-|-------------------------9-9-9-9---|
 |---------------------------------|-----------------------------------|
 |-7-7-7-7-7-7-7-7-7-7-7-7-7-7-7-7-|-7-7-7-7-7-7-7-7-7-7-7-7-7-7-7-7---|
 |-0-0-0-0-0-0-0-0-0-0-0-0---------|-0-0-0-0-0-0-0-0-0-0-0-0-----------|

|
| S S S S S S S S S S S S S S S S S S S S S S S S S S S S S S S S
 
 |---------------------------------|-----------------------------------|
 |---------------------------------|-----------------------------------|
 |---------------------------------|-----------------------------------|
 |-------------------------9-9-9-9-|-------------------------9-9-9-9---|
 |-2-2-2-2-2-2-2-2-2-2-2-2---------|-2-2-2-2-2-2-2-2-2-2-2-2-----------|
 |-2-2-2-2-2-2-2-2-2-2-2-2-7-7-7-7-|-2-2-2-2-2-2-2-2-2-2-2-2-7-7-7-7---|
 |-0-0-0-0-0-0-0-0-0-0-0-0---------|-0-0-0-0-0-0-0-0-0-0-0-0-----------|

H. Q H. Q H. Q H. Q
 
 |-----------------|--------------|-------------|-----------------------|
 |-----------------|--------------|-------------|-----------------------|
 |--------------9--|-----------9--|----------9--|--------------------9--|
 |--7--------------|--5-----------|--2----------|--2--------------------|
 |--7-----------7--|--5--------7--|--2-------7--|--2-----------------7--|
 |--5--------------|--3-----------|--0----------|--0--------------------|

|
| ~~~~~~~~~~~~~~~~~~~~~~~~~~~~~~~~~~~~~~~~~~~~~~~~~~~~~~~~~~~~~~~~~
| Q. Q. Q H. Q W H +E E. E.
 
 |-15---14---------|--------------|-12----------|-14--(14)---15--14-----|
 |-------------12--|-15-------12--|-------------|-----------------------|
 |-----------------|--------------|-------------|-----------------------|
 |-----------------|--------------|-------------|-----------------------|
 |-----------------|--------------|-------------|-----------------------|
 |-----------------|--------------|-------------|-----------------------|
 |-----------------|--------------|-------------|-----------------------|

H. Q H. Q H. Q H. Q
 
 |-----------------------|-----------------------|-------------|-------------|
 |-----------------------|-----------------------|-------------|-------------|
 |--------------------9--|--------------------9--|----------9--|----------9--|
 |--6--------------------|--5--------------------|--2----------|--2----------|
 |--6-----------------7--|--5-----------------7--|--2-------7--|--2-------7--|
 |--4--------------------|--3--------------------|--0----------|--0----------|

|
| ~~~~~~~~~~~~~~~~~~~~~~~~~~~~~~~~~~~~~~~~~~~~~~~~~~~~~~~~~~~~~~~~~
| H +E E. E. H +E E. E. W W
 
 |-12--(12)--15--14------|------------15--14-----|-------------|-------------|
 |-----------------------|-12--(12)--------------|-12----------|-15----------|
 |-----------------------|-----------------------|-------------|-------------|
 |-----------------------|-----------------------|-------------|-------------|
 |-----------------------|-----------------------|-------------|-------------|
 |-----------------------|-----------------------|-------------|-------------|
 |-----------------------|-----------------------|-------------|-------------|

H. Q H. Q H. Q H. Q
 
 |-----------------|--------------|-------------|-----------------------|
 |-----------------|--------------|-------------|-----------------------|
 |--------------9--|-----------9--|----------9--|-----------------9-----|
 |--7--------------|--5-----------|--2----------|--2--------------------|
 |--7-----------7--|--5--------7--|--2-------7--|--2--------------7-----|
 |--5--------------|--3-----------|--0----------|--0--------------------|

|
| ~~~~~~~~~~~~~~~~~~~~~~~~~~~~~~~~~~~~~~~~~~~~~~~~~~~~~~~~~~~~~~~~~~~~
| Q. Q. Q H. Q W H +E E. E.
 
 |-15----14--------|--------------|-12----------|-14-----(14)-15----14--|
 |-------------12--|-15-------12--|-------------|-----------------------|
 |-----------------|--------------|-------------|-----------------------|
 |-----------------|--------------|-------------|-----------------------|
 |-----------------|--------------|-------------|-----------------------|
 |-----------------|--------------|-------------|-----------------------|
 |-----------------|--------------|-------------|-----------------------|

H. Q H. Q W +W
 
 |-----------------------|-----------------------|-----------|--------|
 |-----------------------|-----------------------|-----------|--------|
 |-----------------9-----|-----------------9-----|-----------|--------|
 |--6--------------------|--5--------------------|--2--------|-(2)----|
 |--6--------------7-----|--5--------------7-----|--2--------|-(2)----|
 |--4--------------------|--3--------------------|--0--------|-(0)----|

|
| ~~~~~~~~~~~~~~~~~~~~~~~~~~~~~~~~~~~~~~~~~~~~~~~~~~~~~~~~~~~~~~~
| H +E E. E. H +E E. E. W W
 
 |-12-----(12)-15----14--|-------------15----14--|-----------|--------|
 |-----------------------|-12-----(12)-----------|-12--------|-10-----|
 |-----------------------|-----------------------|-----------|--------|
 |-----------------------|-----------------------|-----------|--------|
 |-----------------------|-----------------------|-----------|--------|
 |-----------------------|-----------------------|-----------|--------|
 |-----------------------|-----------------------|-----------|--------|

>
+W +W +W +W
 
 |-------------|-------------|-------------|---------|
 |-------------|-------------|-------------|---------|
 |-------------|-------------|-------------|---------|
 |--(2)--------|--(2)--------|-------------|---------|
 |--(2)--------|--(2)--------|--(2)--------|---------|
 |--(0)--------|--(0)--------|--(0)--------|--(0)----|

|
| >
| ~~~~~~~~~~~~~~~~~~~~~~~~~~~~~~~~~~~~~~~~~~~~~
| +W +W +W +W
 
 |-------------|-------------|-------------|---------|
 |-(10)--------|-(10)--------|-(10)--------|-(10)----|
 |-------------|-------------|-------------|---------|
 |-------------|-------------|-------------|---------|
 |-------------|-------------|-------------|---------|
 |-------------|-------------|-------------|---------|
 |-------------|-------------|-------------|---------|
 --------------------------------------------------------------------------------

Duration Legend
 
 ---------------
 W - whole; H - half; Q - quarter; E - 8th; S - 16th; T - 32nd; X - 64th; a - acciaccatura

+ - note tied to previous; . - note dotted; .. - note double dotted
Uncapitalized letters represent notes that are staccato (1/2 duration)
Irregular groupings are notated above the duration line
Duration letters will always appear directly above the note/fret number it represents the
duration for. Duration letters with no fret number below them represent rests. Multi-
bar rests are notated in the form Wxn, where n is the number of bars to rest for. Low
melody durations appear below the staff
Tablature Legend
 
 ----------------

h - hammer-on
p - pull-off
b - bend
pb - pre-bend
r - bend release (if no number after the r, then release immediately)
/\ - slide into or out of (from/to "nowhere")
s - legato slide
S - shift slide
- natural harmonic
(n) - artificial harmonic
n(n) - tapped harmonic
~ - vibrato
tr - trill
T - tap
TP - trem. picking
PM - palm muting
\n/ - tremolo bar dip; n = amount to dip
\n - tremolo bar down
n/ - tremolo bar up
/n\ - tremolo bar inverted dip
= - hold bend; also acts as connecting device for hammers/pulls
- volume swell (louder/softer)
x - on rhythm slash represents muted slash
o - on rhythm slash represents single note slash
Misc Legend
 
 -----------

| - bar
|| - double bar
||o - repeat start
o|| - repeat end
*| - double bar (ending)
: - bar (freetime)
$ - Segno
& - Coda
Tempo markers - = BPM(8/16=s8/s16), where s8 = swing 8ths, s16 = swing 16ths

Important: The song above is NOT stored on the Chordie server. The original song is hosted at www.guitaretab.com. Chordie works as a search engine and provides on-the-fly formatting. Chordie does not index songs against artists'/composers' will. To remove this song please click here.

Text color:
Chord color:
Chord grids: 
Font size:    
Page size: 

B
Rate #1 of 2 versions

Jango Player

Login - add to songbook

SHARE PAGE  




You need to log in to post comments